  0
SECTION
  2
HEADER
  9
$ACADVER
  1
AC1012
  9
$DWGCODEPAGE
  3
dos850
  9
$INSBASE
 10
0.0
 20
0.0
 30
0.0
  9
$EXTMIN
 10
4.800874233246
 20
2.053607702255
 30
0.0
  9
$EXTMAX
 10
267.997788819959
 20
185.5
 30
0.0
  9
$LIMMIN
 10
4.800874233246
 20
2.053607702255
  9
$LIMMAX
 10
267.997788819959
 20
185.5
  9
$ORTHOMODE
 70
           0
  9
$REGENMODE
 70
           1
  9
$FILLMODE
 70
           1
  9
$QTEXTMODE
 70
           0
  9
$MIRRTEXT
 70
           1
  9
$DRAGMODE
 70
           2
  9
$LTSCALE
 40
5.0
  9
$OSMODE
 70
           0
  9
$ATTMODE
 70
           1
  9
$TEXTSIZE
 40
0.2
  9
$TRACEWID
 40
0.05
  9
$TEXTSTYLE
  7
TXT
  9
$CLAYER
  8
0
  9
$CELTYPE
  6
CONTINUOUS
  9
$CECOLOR
 62
         256
  9
$CELTSCALE
 40
1.0
  9
$DELOBJ
 70
           1
  9
$DISPSILH
 70
           0
  9
$DIMSCALE
 40
1.0
  9
$DIMASZ
 40
3.5
  9
$DIMEXO
 40
0.0625
  9
$DIMDLI
 40
0.38
  9
$DIMRND
 40
0.0
  9
$DIMDLE
 40
0.0
  9
$DIMEXE
 40
0.18
  9
$DIMTP
 40
0.0
  9
$DIMTM
 40
0.0
  9
$DIMTXT
 40
3.5
  9
$DIMCEN
 40
0.09
  9
$DIMTSZ
 40
0.0
  9
$DIMTOL
 70
           0
  9
$DIMLIM
 70
           0
  9
$DIMTIH
 70
           1
  9
$DIMTOH
 70
           1
  9
$DIMSE1
 70
           0
  9
$DIMSE2
 70
           0
  9
$DIMTAD
 70
           0
  9
$DIMZIN
 70
           0
  9
$DIMBLK
  1

  9
$DIMASO
 70
           1
  9
$DIMSHO
 70
           1
  9
$DIMPOST
  1

  9
$DIMAPOST
  1

  9
$DIMALT
 70
           0
  9
$DIMALTD
 70
           2
  9
$DIMALTF
 40
25.4
  9
$DIMLFAC
 40
1.0
  9
$DIMTOFL
 70
           0
  9
$DIMTVP
 40
0.0
  9
$DIMTIX
 70
           0
  9
$DIMSOXD
 70
           0
  9
$DIMSAH
 70
           0
  9
$DIMBLK1
  1

  9
$DIMBLK2
  1

  9
$DIMSTYLE
  2
STANDARD
  9
$DIMCLRD
 70
           0
  9
$DIMCLRE
 70
           0
  9
$DIMCLRT
 70
           0
  9
$DIMTFAC
 40
1.0
  9
$DIMGAP
 40
0.09
  9
$DIMJUST
 70
           0
  9
$DIMSD1
 70
           0
  9
$DIMSD2
 70
           0
  9
$DIMTOLJ
 70
           1
  9
$DIMTZIN
 70
           0
  9
$DIMALTZ
 70
           0
  9
$DIMALTTZ
 70
           0
  9
$DIMFIT
 70
           3
  9
$DIMUPT
 70
           0
  9
$DIMUNIT
 70
           2
  9
$DIMDEC
 70
           4
  9
$DIMTDEC
 70
           4
  9
$DIMALTU
 70
           2
  9
$DIMALTTD
 70
           2
  9
$DIMTXSTY
  7
TXT
  9
$DIMAUNIT
 70
           0
  9
$LUNITS
 70
           2
  9
$LUPREC
 70
           2
  9
$SKETCHINC
 40
0.1
  9
$FILLETRAD
 40
0.0
  9
$AUNITS
 70
           0
  9
$AUPREC
 70
           2
  9
$MENU
  1
acad
  9
$ELEVATION
 40
0.0
  9
$PELEVATION
 40
0.0
  9
$THICKNESS
 40
0.0
  9
$LIMCHECK
 70
           0
  9
$BLIPMODE
 70
           1
  9
$CHAMFERA
 40
0.0
  9
$CHAMFERB
 40
0.0
  9
$CHAMFERC
 40
0.0
  9
$CHAMFERD
 40
0.0
  9
$SKPOLY
 70
           0
  9
$TDCREATE
 40
0.000000000
  9
$TDUPDATE
 40
0.000000000
  9
$TDINDWG
 40
0.0000000000
  9
$TDUSRTIMER
 40
0.0000000000
  9
$USRTIMER
 70
           1
  9
$ANGBASE
 50
0.0
  9
$ANGDIR
 70
           0
  9
$PDMODE
 70
           2
  9
$PDSIZE
 40
0.5
  9
$PLINEWID
 40
0.0
  9
$COORDS
 70
           0
  9
$SPLFRAME
 70
           0
  9
$SPLINETYPE
 70
           6
  9
$SPLINESEGS
 70
           8
  9
$ATTDIA
 70
           0
  9
$ATTREQ
 70
           1
  9
$HANDLING
 70
           1
  9
$HANDSEED
  5
6B9
  9
$SURFTAB1
 70
           6
  9
$SURFTAB2
 70
           6
  9
$SURFTYPE
 70
           6
  9
$SURFU
 70
           6
  9
$SURFV
 70
           6
  9
$UCSNAME
  2

  9
$UCSORG
 10
0.0
 20
0.0
 30
0.0
  9
$UCSXDIR
 10
1.0
 20
0.0
 30
0.0
  9
$UCSYDIR
 10
0.0
 20
1.0
 30
0.0
  9
$PUCSNAME
  2

  9
$PUCSORG
 10
0.0
 20
0.0
 30
0.0
  9
$PUCSXDIR
 10
1.0
 20
0.0
 30
0.0
  9
$PUCSYDIR
 10
0.0
 20
1.0
 30
0.0
  9
$USERI1
 70
           0
  9
$USERI2
 70
           0
  9
$USERI3
 70
           0
  9
$USERI4
 70
           0
  9
$USERI5
 70
           0
  9
$USERR1
 40
0.0
  9
$USERR2
 40
0.0
  9
$USERR3
 40
0.0
  9
$USERR4
 40
0.0
  9
$USERR5
 40
0.0
  9
$WORLDVIEW
 70
           1
  9
$SHADEDGE
 70
           3
  9
$SHADEDIF
 70
          70
  9
$TILEMODE
 70
           1
  9
$MAXACTVP
 70
          16
  9
$PINSBASE
 10
0.0
 20
0.0
 30
0.0
  9
$PLIMCHECK
 70
           0
  9
$PEXTMIN
 10
1.000000000000E+20
 20
1.000000000000E+20
 30
1.000000000000E+20
  9
$PEXTMAX
 10
-1.000000000000E+20
 20
-1.000000000000E+20
 30
-1.000000000000E+20
  9
$PLIMMIN
 10
0.0
 20
0.0
  9
$PLIMMAX
 10
12.0
 20
9.0
  9
$UNITMODE
 70
           0
  9
$VISRETAIN
 70
           0
  9
$PLINEGEN
 70
           1
  9
$PSLTSCALE
 70
           0
  9
$TREEDEPTH
 70
        3020
  9
$PICKSTYLE
 70
           1
  9
$CMLSTYLE
  2
STANDARD
  9
$CMLJUST
 70
           0
  9
$CMLSCALE
 40
1.0
  9
$SAVEIMAGES
 70
           0
  0
ENDSEC
  0
SECTION
  2
CLASSES
  0
CLASS
  1
LWPOLYLINE
  2
AcDbPolyline
  3
"AutoCAD"
 90
        0
280
           0
281
           1
  0
CLASS
  1
IMAGE
  2
AcDbRasterImage
  3
ISM
 90
      127
280
           0
281
           1
  0
CLASS
  1
OLE2FRAME
  2
AcDbOle2Frame
  3
""
 90
        0
280
           0
281
           1
  0
CLASS
  1
HATCH
  2
AcDbHatch
  3
"ACAD_SEDONA"
 90
        0
280
           0
281
           1
  0
CLASS
  1
DICTIONARYVAR
  2
AcDbDictionaryVar
  3
"AutoCAD"
 90
        0
280
           0
281
           0
  0
CLASS
  1
RASTERVARIABLES
  2
AcDbRasterVariables
  3
ISM
 90
        0
280
           0
281
           0
  0
CLASS
  1
IMAGEDEF
  2
AcDbRasterImageDef
  3
ISM
 90
        0
280
           0
281
           0
  0
CLASS
  1
IMAGEDEF_REACTOR
  2
AcDbRasterImageDefReactor
  3
ISM
 90
        1
280
           0
281
           0
  0
CLASS
  1
IDBUFFER
  2
AcDbIdBuffer
  3
"Acad"
 90
        0
280
           0
281
           0
  0
CLASS
  1
SPATIAL_FILTER
  2
AcDbSpatialFilter
  3
"Acad"
 90
        0
280
           0
281
           0
  0
CLASS
  1
XRECORD
  2
AcDbXrecord
  3
"<Built In>"
 90
        0
280
           0
281
           0
  0
ENDSEC
  0
SECTION
  2
TABLES
  0
TABLE
  2
VPORT
  5
7
100
AcDbSymbolTable
 70
           1
  0
VPORT
  5
15
100
AcDbSymbolTableRecord
100
AcDbViewportTableRecord
  2
*ACTIVE
 70
           0
 10
0.0
 20
0.0
 11
1.0
 21
1.0
 12
6.591288
 22
4.579184
 13
0.0
 23
0.0
 14
1.0
 24
1.0
 15
0.0
 25
0.0
 16
0.0
 26
0.0
 36
1.0
 17
0.0
 27
0.0
 37
0.0
 40
9.158369
 41
0.688564
 42
50.0
 43
0.0
 44
0.0
 50
0.0
 51
0.0
 71
           0
 72
         100
 73
           1
 74
           1
 75
           0
 76
           0
 77
           0
 78
           0
  0
ENDTAB
  0
TABLE
  2
LTYPE
  5
4
100
AcDbSymbolTable
 70
           3
  0
LTYPE
  5
11
100
AcDbSymbolTableRecord
100
AcDbLinetypeTableRecord
  2
BYBLOCK
 70
           0
  3

 72
          65
 73
           0
 40
0.0
  0
LTYPE
  5
12
100
AcDbSymbolTableRecord
100
AcDbLinetypeTableRecord
  2
BYLAYER
 70
           0
  3

 72
          65
 73
           0
 40
0.0
  0
LTYPE
  5
13
100
AcDbSymbolTableRecord
100
AcDbLinetypeTableRecord
  2
CONTINUOUS
 70
           0
  3
Solid line
 72
          65
 73
           0
 40
0.0
  0
ENDTAB
  0
TABLE
  2
LAYER
  5
2
100
AcDbSymbolTable
 70
           1
  0
LAYER
  5
14
100
AcDbSymbolTableRecord
100
AcDbLayerTableRecord
  2
0
 70
           0
 62
           7
  6
CONTINUOUS
  0
ENDTAB
  0
TABLE
  2
STYLE
  5
3
100
AcDbSymbolTable
 70
           5
  0
STYLE
  5
17
100
AcDbSymbolTableRecord
100
AcDbTextStyleTableRecord
  2
TXT
 70
           0
 40
3.5
 41
1.0
 50
0.0
 71
           0
 42
3.5
  3
TXT
  4

  0
STYLE
  5
1D
100
AcDbSymbolTableRecord
100
AcDbTextStyleTableRecord
  2
ROMANT
 70
           0
 40
3.5
 41
1.0
 50
0.0
 71
           0
 42
3.5
  3
ROMANT
  4

  0
STYLE
  5
1E
100
AcDbSymbolTableRecord
100
AcDbTextStyleTableRecord
  2
GOTHICI
 70
           0
 40
3.5
 41
1.0
 50
0.0
 71
           0
 42
3.5
  3
GOTHICI
  4

  0
STYLE
  5
1F
100
AcDbSymbolTableRecord
100
AcDbTextStyleTableRecord
  2
GOTHICG
 70
           0
 40
3.5
 41
1.0
 50
0.0
 71
           0
 42
3.5
  3
GOTHICG
  4

  0
STYLE
  5
20
100
AcDbSymbolTableRecord
100
AcDbTextStyleTableRecord
  2
ROMAND
 70
           0
 40
3.5
 41
1.0
 50
0.0
 71
           0
 42
3.5
  3
ROMAND
  4

  0
ENDTAB
  0
TABLE
  2
VIEW
  5
5
100
AcDbSymbolTable
 70
           0
  0
ENDTAB
  0
TABLE
  2
UCS
  5
6
100
AcDbSymbolTable
 70
           0
  0
ENDTAB
  0
TABLE
  2
APPID
  5
8
100
AcDbSymbolTable
 70
           2
  0
APPID
  5
16
100
AcDbSymbolTableRecord
100
AcDbRegAppTableRecord
  2
ACAD
 70
           0
  0
APPID
  5
21
100
AcDbSymbolTableRecord
100
AcDbRegAppTableRecord
  2
MegaCADPntStyle
 70
           0
  0
ENDTAB
  0
TABLE
  2
DIMSTYLE
  5
9
100
AcDbSymbolTable
 70
           1
  0
DIMSTYLE
105
18
100
AcDbSymbolTableRecord
100
AcDbDimStyleTableRecord
  2
STANDARD
 70
           0
  3

  4

  5

  6

  7

 40
1.0
 41
0.18
 42
0.0625
 43
0.38
 44
0.18
 45
0.0
 46
0.0
 47
0.0
 48
0.0
140
0.18
141
0.09
142
0.0
143
25.4
144
1.0
145
0.0
146
1.0
147
0.09
 71
           0
 72
           0
 73
           1
 74
           1
 75
           0
 76
           0
 77
           0
 78
           0
170
           0
171
           2
172
           0
173
           0
174
           0
175
           0
176
           0
177
           0
178
           0
270
           2
271
           4
272
           4
273
           2
274
           2
340
17
275
           0
280
           0
281
           0
282
           0
283
           1
284
           0
285
           0
286
           0
287
           0
288
           0
  0
ENDTAB
  0
TABLE
  2
BLOCK_RECORD
  5
1
100
AcDbSymbolTable
 70
          22
  0
BLOCK_RECORD
  5
A
100
AcDbSymbolTableRecord
100
AcDbBlockTableRecord
  2
*MODEL_SPACE
  0
BLOCK_RECORD
  5
B
100
AcDbSymbolTableRecord
100
AcDbBlockTableRecord
  2
*PAPER_SPACE
  0
BLOCK_RECORD
  5
22
100
AcDbSymbolTableRecord
100
AcDbBlockTableRecord
  2
ELIPPSE
  0
BLOCK_RECORD
  5
23
100
AcDbSymbolTableRecord
100
AcDbBlockTableRecord
  2
RTX_1
  0
BLOCK_RECORD
  5
24
100
AcDbSymbolTableRecord
100
AcDbBlockTableRecord
  2
SDX_2
  0
BLOCK_RECORD
  5
25
100
AcDbSymbolTableRecord
100
AcDbBlockTableRecord
  2
SDXPSA_3
  0
BLOCK_RECORD
  5
26
100
AcDbSymbolTableRecord
100
AcDbBlockTableRecord
  2
RTX_4
  0
BLOCK_RECORD
  5
27
100
AcDbSymbolTableRecord
100
AcDbBlockTableRecord
  2
SDX_5
  0
BLOCK_RECORD
  5
28
100
AcDbSymbolTableRecord
100
AcDbBlockTableRecord
  2
PLANT_6
  0
BLOCK_RECORD
  5
29
100
AcDbSymbolTableRecord
100
AcDbBlockTableRecord
  2
TB4C_7
  0
BLOCK_RECORD
  5
2A
100
AcDbSymbolTableRecord
100
AcDbBlockTableRecord
  2
TB4C_8
  0
BLOCK_RECORD
  5
2B
100
AcDbSymbolTableRecord
100
AcDbBlockTableRecord
  2
SUPPLY_9
  0
BLOCK_RECORD
  5
2C
100
AcDbSymbolTableRecord
100
AcDbBlockTableRecord
  2
TERMINAL_10
  0
BLOCK_RECORD
  5
2D
100
AcDbSymbolTableRecord
100
AcDbBlockTableRecord
  2
TERMINAL_11
  0
BLOCK_RECORD
  5
2E
100
AcDbSymbolTableRecord
100
AcDbBlockTableRecord
  2
TERMINAL_12
  0
BLOCK_RECORD
  5
2F
100
AcDbSymbolTableRecord
100
AcDbBlockTableRecord
  2
TERMINAL_13
  0
BLOCK_RECORD
  5
30
100
AcDbSymbolTableRecord
100
AcDbBlockTableRecord
  2
TERMINAL_14
  0
BLOCK_RECORD
  5
31
100
AcDbSymbolTableRecord
100
AcDbBlockTableRecord
  2
TB4C_15
  0
BLOCK_RECORD
  5
32
100
AcDbSymbolTableRecord
100
AcDbBlockTableRecord
  2
RES_16
  0
BLOCK_RECORD
  5
33
100
AcDbSymbolTableRecord
100
AcDbBlockTableRecord
  2
PLANT_17
  0
BLOCK_RECORD
  5
34
100
AcDbSymbolTableRecord
100
AcDbBlockTableRecord
  2
MAN_18
  0
BLOCK_RECORD
  5
35
100
AcDbSymbolTableRecord
100
AcDbBlockTableRecord
  2
PLANT_19
  0
BLOCK_RECORD
  5
36
100
AcDbSymbolTableRecord
100
AcDbBlockTableRecord
  2
MAN_20
  0
BLOCK_RECORD
  5
37
100
AcDbSymbolTableRecord
100
AcDbBlockTableRecord
  2
CABLEREQ_21
  0
ENDTAB
  0
ENDSEC
  0
SECTION
  2
BLOCKS
  0
BLOCK
  5
D
100
AcDbEntity
  8
0
100
AcDbBlockBegin
  2
*MODEL_SPACE
 70
           0
 10
0.0
 20
0.0
 30
0.0
  3
*MODEL_SPACE
  1

  0
ENDBLK
  5
E
100
AcDbEntity
  8
0
100
AcDbBlockEnd
  0
BLOCK
  5
F
100
AcDbEntity
 67
           1
  8
0
100
AcDbBlockBegin
  2
*PAPER_SPACE
 70
           0
 10
0.0
 20
0.0
 30
0.0
  3
*PAPER_SPACE
  1

  0
ENDBLK
  5
10
100
AcDbEntity
 67
           1
  8
0
100
AcDbBlockEnd
  0
BLOCK
  5
3D0
100
AcDbEntity
  8
0
100
AcDbBlockBegin
  2
ELIPPSE
 70
          64
 10
0.0
 20
0.0
 30
0.0
  3
ELIPPSE
  1

  0
CIRCLE
  5
3D1
100
AcDbEntity
  8
0
  6
BYBLOCK
 62
           0
100
AcDbCircle
 10
0.0
 20
0.0
 30
0.0
 40
1.0
  0
ENDBLK
  5
3D2
100
AcDbEntity
  8
0
  6
BYBLOCK
 62
           0
100
AcDbBlockEnd
  0
BLOCK
  5
3D3
100
AcDbEntity
  8
0
100
AcDbBlockBegin
  2
RTX_1
 70
          64
 10
0.0
 20
0.0
 30
0.0
  3
RTX_1
  1

  0
LINE
  5
3D4
100
AcDbEntity
  8
0
  6
CONTINUOUS
 62
          15
100
AcDbLine
 10
9.149360656738
 20
1.309364318848
 30
0.0
 11
9.149360656738
 21
11.869361877441
 31
0.0
  0
LINE
  5
3D5
100
AcDbEntity
  8
0
  6
CONTINUOUS
 62
          15
100
AcDbLine
 10
8.489364624023
 20
12.529365539551
 30
0.0
 11
-6.690637588501
 21
12.529365539551
 31
0.0
  0
ELLIPSE
  5
3D6
100
AcDbEntity
  8
0
  6
CONTINUOUS
 62
          15
100
AcDbEllipse
 10
-6.690637588501
 20
11.869361877441
 30
0.0
 11
0.0
 21
0.6600000262260437
 31
0.0
210
0.0
220
0.0
230
1.0
 40
1.0
 41
0.0000000437113898
 42
0.7853981693598904
  0
ELLIPSE
  5
3D7
100
AcDbEntity
  8
0
  6
CONTINUOUS
 62
          15
100
AcDbEllipse
 10
8.489364624023
 20
1.309364318848
 30
0.0
 11
0.0
 21
0.6600000262260437
 31
0.0
210
0.0
220
0.0
230
1.0
 40
1.0
 41
-2.3561948100712655
 42
-1.5707963267948966
  0
ELLIPSE
  5
3D8
100
AcDbEntity
  8
0
  6
CONTINUOUS
 62
          15
100
AcDbEllipse
 10
8.489364624023
 20
11.869361877441
 30
0.0
 11
0.0
 21
0.6600000262260437
 31
0.0
210
0.0
220
0.0
230
1.0
 40
1.0
 41
-1.5707963267948966
 42
0.0000000437113925
  0
LINE
  5
3D9
100
AcDbEntity
  8
0
  6
CONTINUOUS
 62
          15
100
AcDbLine
 10
-7.274000167847
 20
0.06600189209
 30
0.0
 11
7.90599822998
 21
0.06600189209
 31
0.0
  0
LINE
  5
3DA
100
AcDbEntity
  8
0
  6
CONTINUOUS
 62
          15
100
AcDbLine
 10
8.56600189209
 20
0.725997924805
 30
0.0
 11
8.56600189209
 21
11.286003112793
 31
0.0
  0
LINE
  5
3DB
100
AcDbEntity
  8
0
  6
CONTINUOUS
 62
          15
100
AcDbLine
 10
7.90599822998
 20
11.945999145508
 30
0.0
 11
-7.274000167847
 21
11.945999145508
 31
0.0
  0
LINE
  5
3DC
100
AcDbEntity
  8
0
  6
CONTINUOUS
 62
          15
100
AcDbLine
 10
-7.934000015259
 20
11.286003112793
 30
0.0
 11
-7.934000015259
 21
0.725997924805
 31
0.0
  0
ELLIPSE
  5
3DD
100
AcDbEntity
  8
0
  6
CONTINUOUS
 62
          15
100
AcDbEllipse
 10
-7.274000167847
 20
11.286003112793
 30
0.0
 11
0.0
 21
0.6600000262260437
 31
0.0
210
0.0
220
0.0
230
1.0
 40
1.0
 41
0.0000000437113898
 42
-4.712388829388896
  0
ELLIPSE
  5
3DE
100
AcDbEntity
  8
0
  6
CONTINUOUS
 62
          15
100
AcDbEllipse
 10
-7.274000167847
 20
0.725997924805
 30
0.0
 11
0.0
 21
0.6600000262260437
 31
0.0
210
0.0
220
0.0
230
1.0
 40
1.0
 41
-4.712388829388896
 42
-3.1415926973011832
  0
ELLIPSE
  5
3DF
100
AcDbEntity
  8
0
  6
CONTINUOUS
 62
          15
100
AcDbEllipse
 10
7.90599822998
 20
0.725997924805
 30
0.0
 11
0.0
 21
0.6600000262260437
 31
0.0
210
0.0
220
0.0
230
1.0
 40
1.0
 41
-3.1415926973011858
 42
-1.5707963267948966
  0
ELLIPSE
  5
3E0
100
AcDbEntity
  8
0
  6
CONTINUOUS
 62
          15
100
AcDbEllipse
 10
7.90599822998
 20
11.286003112793
 30
0.0
 11
0.0
 21
0.6600000262260437
 31
0.0
210
0.0
220
0.0
230
1.0
 40
1.0
 41
-1.5707963267948966
 42
0.0000000437113925
  0
LINE
  5
3E1
100
AcDbEntity
  8
0
  6
CONTINUOUS
 62
          15
100
AcDbLine
 10
10.899452209473
 20
3.059455871582
 30
0.0
 11
10.899452209473
 21
13.619453430176
 31
0.0
  0
LINE
  5
3E2
100
AcDbEntity
  8
0
  6
CONTINUOUS
 62
          15
100
AcDbLine
 10
10.239452362061
 20
14.279449462891
 30
0.0
 11
-4.940547943115
 21
14.279449462891
 31
0.0
  0
ELLIPSE
  5
3E3
100
AcDbEntity
  8
0
  6
CONTINUOUS
 62
          15
100
AcDbEllipse
 10
-4.940547943115
 20
13.619453430176
 30
0.0
 11
0.0
 21
0.6600000262260437
 31
0.0
210
0.0
220
0.0
230
1.0
 40
1.0
 41
0.0000000437113898
 42
0.7853981693598904
  0
ELLIPSE
  5
3E4
100
AcDbEntity
  8
0
  6
CONTINUOUS
 62
          15
100
AcDbEllipse
 10
10.239452362061
 20
3.059455871582
 30
0.0
 11
0.0
 21
0.6600000262260437
 31
0.0
210
0.0
220
0.0
230
1.0
 40
1.0
 41
-2.3561948100712655
 42
-1.5707963267948966
  0
ELLIPSE
  5
3E5
100
AcDbEntity
  8
0
  6
CONTINUOUS
 62
          15
100
AcDbEllipse
 10
10.239452362061
 20
13.619453430176
 30
0.0
 11
0.0
 21
0.6600000262260437
 31
0.0
210
0.0
220
0.0
230
1.0
 40
1.0
 41
-1.5707963267948966
 42
0.0000000437113925
  0
LINE
  5
3E6
100
AcDbEntity
  8
0
  6
CONTINUOUS
 62
          15
100
AcDbLine
 10
-7.740690231323
 20
11.752685546875
 30
0.0
 11
-5.407238006592
 21
14.086143493652
 31
0.0
  0
LINE
  5
3E7
100
AcDbEntity
  8
0
  6
CONTINUOUS
 62
          15
100
AcDbLine
 10
10.706142425537
 20
2.592758178711
 30
0.0
 11
8.372688293457
 21
0.259307861328
 31
0.0
  0
ENDBLK
  5
3E8
100
AcDbEntity
  8
0
  6
BYBLOCK
 62
           0
100
AcDbBlockEnd
  0
BLOCK
  5
3E9
100
AcDbEntity
  8
0
100
AcDbBlockBegin
  2
SDX_2
 70
          64
 10
0.0
 20
0.0
 30
0.0
  3
SDX_2
  1

  0
LINE
  5
3EA
100
AcDbEntity
  8
0
  6
CONTINUOUS
 62
          15
100
AcDbLine
 10
-16.25
 20
0.0
 30
0.0
 11
16.25
 21
0.0
 31
0.0
  0
LINE
  5
3EB
100
AcDbEntity
  8
0
  6
CONTINUOUS
 62
          15
100
AcDbLine
 10
16.25
 20
0.0
 30
0.0
 11
16.25
 21
25.0
 31
0.0
  0
LINE
  5
3EC
100
AcDbEntity
  8
0
  6
CONTINUOUS
 62
          15
100
AcDbLine
 10
16.25
 20
25.0
 30
0.0
 11
-16.25
 21
25.0
 31
0.0
  0
LINE
  5
3ED
100
AcDbEntity
  8
0
  6
CONTINUOUS
 62
          15
100
AcDbLine
 10
-16.25
 20
25.0
 30
0.0
 11
-16.25
 21
0.0
 31
0.0
  0
LINE
  5
3EE
100
AcDbEntity
  8
0
  6
CONTINUOUS
 62
          15
100
AcDbLine
 10
-15.649993896484
 20
0.59999593099
 30
0.0
 11
15.649993896484
 21
0.59999593099
 31
0.0
  0
LINE
  5
3EF
100
AcDbEntity
  8
0
  6
CONTINUOUS
 62
          15
100
AcDbLine
 10
15.649993896484
 20
0.59999593099
 30
0.0
 11
15.649993896484
 21
24.40000406901
 31
0.0
  0
LINE
  5
3F0
100
AcDbEntity
  8
0
  6
CONTINUOUS
 62
          15
100
AcDbLine
 10
15.649993896484
 20
24.40000406901
 30
0.0
 11
-15.649993896484
 21
24.40000406901
 31
0.0
  0
LINE
  5
3F1
100
AcDbEntity
  8
0
  6
CONTINUOUS
 62
          15
100
AcDbLine
 10
-15.649993896484
 20
24.40000406901
 30
0.0
 11
-15.649993896484
 21
0.59999593099
 31
0.0
  0
LINE
  5
3F2
100
AcDbEntity
  8
0
  6
CONTINUOUS
 62
          15
100
AcDbLine
 10
-13.75
 20
2.5
 30
0.0
 11
13.75
 21
2.5
 31
0.0
  0
LINE
  5
3F3
100
AcDbEntity
  8
0
  6
CONTINUOUS
 62
          15
100
AcDbLine
 10
13.75
 20
2.5
 30
0.0
 11
13.75
 21
22.5
 31
0.0
  0
LINE
  5
3F4
100
AcDbEntity
  8
0
  6
CONTINUOUS
 62
          15
100
AcDbLine
 10
13.75
 20
22.5
 30
0.0
 11
-13.75
 21
22.5
 31
0.0
  0
LINE
  5
3F5
100
AcDbEntity
  8
0
  6
CONTINUOUS
 62
          15
100
AcDbLine
 10
-13.75
 20
22.5
 30
0.0
 11
-13.75
 21
2.5
 31
0.0
  0
LINE
  5
3F6
100
AcDbEntity
  8
0
  6
CONTINUOUS
 62
          15
100
AcDbLine
 10
-11.949991861979
 20
11.59999593099
 30
0.0
 11
-9.449991861979
 21
11.59999593099
 31
0.0
  0
LINE
  5
3F7
100
AcDbEntity
  8
0
  6
CONTINUOUS
 62
          15
100
AcDbLine
 10
-9.449991861979
 20
11.59999593099
 30
0.0
 11
-9.449991861979
 21
19.40000406901
 31
0.0
  0
LINE
  5
3F8
100
AcDbEntity
  8
0
  6
CONTINUOUS
 62
          15
100
AcDbLine
 10
-9.449991861979
 20
19.40000406901
 30
0.0
 11
-11.949991861979
 21
19.40000406901
 31
0.0
  0
LINE
  5
3F9
100
AcDbEntity
  8
0
  6
CONTINUOUS
 62
          15
100
AcDbLine
 10
-11.949991861979
 20
19.40000406901
 30
0.0
 11
-11.949991861979
 21
11.59999593099
 31
0.0
  0
LINE
  5
3FA
100
AcDbEntity
  8
0
  6
CONTINUOUS
 62
          15
100
AcDbLine
 10
-3.25
 20
11.59999593099
 30
0.0
 11
-0.75
 21
11.59999593099
 31
0.0
  0
LINE
  5
3FB
100
AcDbEntity
  8
0
  6
CONTINUOUS
 62
          15
100
AcDbLine
 10
-0.75
 20
11.59999593099
 30
0.0
 11
-0.75
 21
19.40000406901
 31
0.0
  0
LINE
  5
3FC
100
AcDbEntity
  8
0
  6
CONTINUOUS
 62
          15
100
AcDbLine
 10
-0.75
 20
19.40000406901
 30
0.0
 11
-3.25
 21
19.40000406901
 31
0.0
  0
LINE
  5
3FD
100
AcDbEntity
  8
0
  6
CONTINUOUS
 62
          15
100
AcDbLine
 10
-3.25
 20
19.40000406901
 30
0.0
 11
-3.25
 21
11.59999593099
 31
0.0
  0
LINE
  5
3FE
100
AcDbEntity
  8
0
  6
CONTINUOUS
 62
          15
100
AcDbLine
 10
0.949991861979
 20
11.59999593099
 30
0.0
 11
3.449991861979
 21
11.59999593099
 31
0.0
  0
LINE
  5
3FF
100
AcDbEntity
  8
0
  6
CONTINUOUS
 62
          15
100
AcDbLine
 10
3.449991861979
 20
11.59999593099
 30
0.0
 11
3.449991861979
 21
19.40000406901
 31
0.0
  0
LINE
  5
400
100
AcDbEntity
  8
0
  6
CONTINUOUS
 62
          15
100
AcDbLine
 10
3.449991861979
 20
19.40000406901
 30
0.0
 11
0.949991861979
 21
19.40000406901
 31
0.0
  0
LINE
  5
401
100
AcDbEntity
  8
0
  6
CONTINUOUS
 62
          15
100
AcDbLine
 10
0.949991861979
 20
19.40000406901
 30
0.0
 11
0.949991861979
 21
11.59999593099
 31
0.0
  0
LINE
  5
402
100
AcDbEntity
  8
0
  6
CONTINUOUS
 62
          15
100
AcDbLine
 10
5.149993896484
 20
11.59999593099
 30
0.0
 11
7.649993896484
 21
11.59999593099
 31
0.0
  0
LINE
  5
403
100
AcDbEntity
  8
0
  6
CONTINUOUS
 62
          15
100
AcDbLine
 10
7.649993896484
 20
11.59999593099
 30
0.0
 11
7.649993896484
 21
19.40000406901
 31
0.0
  0
LINE
  5
404
100
AcDbEntity
  8
0
  6
CONTINUOUS
 62
          15
100
AcDbLine
 10
7.649993896484
 20
19.40000406901
 30
0.0
 11
5.149993896484
 21
19.40000406901
 31
0.0
  0
LINE
  5
405
100
AcDbEntity
  8
0
  6
CONTINUOUS
 62
          15
100
AcDbLine
 10
5.149993896484
 20
19.40000406901
 30
0.0
 11
5.149993896484
 21
11.59999593099
 31
0.0
  0
LINE
  5
406
100
AcDbEntity
  8
0
  6
CONTINUOUS
 62
          15
100
AcDbLine
 10
9.350006103516
 20
11.59999593099
 30
0.0
 11
11.850006103516
 21
11.59999593099
 31
0.0
  0
LINE
  5
407
100
AcDbEntity
  8
0
  6
CONTINUOUS
 62
          15
100
AcDbLine
 10
11.850006103516
 20
11.59999593099
 30
0.0
 11
11.850006103516
 21
19.40000406901
 31
0.0
  0
LINE
  5
408
100
AcDbEntity
  8
0
  6
CONTINUOUS
 62
          15
100
AcDbLine
 10
11.850006103516
 20
19.40000406901
 30
0.0
 11
9.350006103516
 21
19.40000406901
 31
0.0
  0
LINE
  5
409
100
AcDbEntity
  8
0
  6
CONTINUOUS
 62
          15
100
AcDbLine
 10
9.350006103516
 20
19.40000406901
 30
0.0
 11
9.350006103516
 21
11.59999593099
 31
0.0
  0
LINE
  5
40A
100
AcDbEntity
  8
0
  6
CONTINUOUS
 62
          15
100
AcDbLine
 10
-7.75
 20
11.59999593099
 30
0.0
 11
-5.25
 21
11.59999593099
 31
0.0
  0
LINE
  5
40B
100
AcDbEntity
  8
0
  6
CONTINUOUS
 62
          15
100
AcDbLine
 10
-5.25
 20
11.59999593099
 30
0.0
 11
-5.25
 21
19.40000406901
 31
0.0
  0
LINE
  5
40C
100
AcDbEntity
  8
0
  6
CONTINUOUS
 62
          15
100
AcDbLine
 10
-5.25
 20
19.40000406901
 30
0.0
 11
-7.75
 21
19.40000406901
 31
0.0
  0
LINE
  5
40D
100
AcDbEntity
  8
0
  6
CONTINUOUS
 62
          15
100
AcDbLine
 10
-7.75
 20
19.40000406901
 30
0.0
 11
-7.75
 21
11.59999593099
 31
0.0
  0
CIRCLE
  5
40E
100
AcDbEntity
  8
0
  6
CONTINUOUS
 62
          15
100
AcDbCircle
 10
-9.75
 20
7.0
 30
0.0
 40
0.5
  0
CIRCLE
  5
40F
100
AcDbEntity
  8
0
  6
CONTINUOUS
 62
          15
100
AcDbCircle
 10
-9.75
 20
9.5
 30
0.0
 40
0.5
  0
LINE
  5
410
100
AcDbEntity
  8
0
  6
CONTINUOUS
 62
          15
100
AcDbLine
 10
-12.25
 20
11.0
 30
0.0
 11
12.25
 21
11.0
 31
0.0
  0
LINE
  5
411
100
AcDbEntity
  8
0
  6
CONTINUOUS
 62
          15
100
AcDbLine
 10
-13.25
 20
10.5
 30
0.0
 11
13.116027832031
 21
10.5
 31
0.0
  0
LINE
  5
412
100
AcDbEntity
  8
0
  6
CONTINUOUS
 62
          15
100
AcDbLine
 10
-3.25
 20
10.0
 30
0.0
 11
13.25
 21
10.0
 31
0.0
  0
LINE
  5
413
100
AcDbEntity
  8
0
  6
CONTINUOUS
 62
          15
100
AcDbLine
 10
-2.75
 20
9.5
 30
0.0
 11
13.25
 21
9.5
 31
0.0
  0
LINE
  5
414
100
AcDbEntity
  8
0
  6
CONTINUOUS
 62
          15
100
AcDbLine
 10
-2.25
 20
9.0
 30
0.0
 11
13.25
 21
9.0
 31
0.0
  0
LINE
  5
415
100
AcDbEntity
  8
0
  6
CONTINUOUS
 62
          15
100
AcDbLine
 10
-1.75
 20
8.5
 30
0.0
 11
13.25
 21
8.5
 31
0.0
  0
LINE
  5
416
100
AcDbEntity
  8
0
  6
CONTINUOUS
 62
          15
100
AcDbLine
 10
-12.25
 20
4.0
 30
0.0
 11
12.25
 21
4.0
 31
0.0
  0
LINE
  5
417
100
AcDbEntity
  8
0
  6
CONTINUOUS
 62
          15
100
AcDbLine
 10
-13.116027832031
 20
4.5
 30
0.0
 11
13.116027832031
 21
4.5
 31
0.0
  0
LINE
  5
418
100
AcDbEntity
  8
0
  6
CONTINUOUS
 62
          15
100
AcDbLine
 10
-13.25
 20
5.0
 30
0.0
 11
-3.134613037109
 21
5.0
 31
0.0
  0
LINE
  5
419
100
AcDbEntity
  8
0
  6
CONTINUOUS
 62
          15
100
AcDbLine
 10
-13.25
 20
5.5
 30
0.0
 11
-3.596160888672
 21
5.5
 31
0.0
  0
LINE
  5
41A
100
AcDbEntity
  8
0
  6
CONTINUOUS
 62
          15
100
AcDbLine
 10
-13.25
 20
6.0
 30
0.0
 11
-4.057698567708
 21
6.0
 31
0.0
  0
TEXT
  5
41B
100
AcDbEntity
  8
0
  6
CONTINUOUS
 62
          15
100
AcDbText
 10
5.75
 20
5.999996731679
 30
0.0
 40
1.399999936422
  1
SDX-15
 41
0.764285750981
  7
ROMAND
100
AcDbText
  0
LINE
  5
41C
100
AcDbEntity
  8
0
  6
CONTINUOUS
 62
          15
100
AcDbLine
 10
-12.25
 20
22.0
 30
0.0
 11
12.25
 21
22.0
 31
0.0
  0
LINE
  5
41D
100
AcDbEntity
  8
0
  6
CONTINUOUS
 62
          15
100
AcDbLine
 10
-13.116027832031
 20
21.5
 30
0.0
 11
13.116027832031
 21
21.5
 31
0.0
  0
LINE
  5
41E
100
AcDbEntity
  8
0
  6
CONTINUOUS
 62
          15
100
AcDbLine
 10
-13.25
 20
20.0
 30
0.0
 11
13.25
 21
20.0
 31
0.0
  0
TEXT
  5
41F
100
AcDbEntity
  8
0
  6
CONTINUOUS
 62
          15
100
AcDbText
 10
-9.153828938802
 20
20.264792899291
 30
0.0
 40
1.0
  1
MEDICAL GAS ALARM
 41
1.070000002782
  7
ROMAND
100
AcDbText
  0
ENDBLK
  5
420
100
AcDbEntity
  8
0
  6
BYBLOCK
 62
           0
100
AcDbBlockEnd
  0
BLOCK
  5
421
100
AcDbEntity
  8
0
100
AcDbBlockBegin
  2
SDXPSA_3
 70
          64
 10
0.0
 20
0.0
 30
0.0
  3
SDXPSA_3
  1

  0
LINE
  5
422
100
AcDbEntity
  8
0
  6
CONTINUOUS
 62
          15
100
AcDbLine
 10
-11.617691040039
 20
-17.426528930664
 30
0.0
 11
0.0
 21
0.0
 31
0.0
  0
ENDBLK
  5
423
100
AcDbEntity
  8
0
  6
BYBLOCK
 62
           0
100
AcDbBlockEnd
  0
BLOCK
  5
424
100
AcDbEntity
  8
0
100
AcDbBlockBegin
  2
RTX_4
 70
          64
 10
0.0
 20
0.0
 30
0.0
  3
RTX_4
  1

  0
LINE
  5
425
100
AcDbEntity
  8
0
  6
CONTINUOUS
 62
          15
100
AcDbLine
 10
8.555857000516
 20
1.121584529814
 30
0.0
 11
8.555857000516
 21
11.681578489877
 31
0.0
  0
LINE
  5
426
100
AcDbEntity
  8
0
  6
CONTINUOUS
 62
          15
100
AcDbLine
 10
7.895863537158
 20
12.341578311063
 30
0.0
 11
-7.28413870795
 21
12.341578311063
 31
0.0
  0
ELLIPSE
  5
427
100
AcDbEntity
  8
0
  6
CONTINUOUS
 62
          15
100
AcDbEllipse
 10
-7.28413870795
 20
11.681578489877
 30
0.0
 11
0.0
 21
0.660000019868214
 31
0.0
210
0.0
220
0.0
230
1.0
 40
1.0
 41
0.0000000437113821
 42
0.7853981693598886
  0
ELLIPSE
  5
428
100
AcDbEntity
  8
0
  6
CONTINUOUS
 62
          15
100
AcDbEllipse
 10
7.895863537158
 20
1.121584529814
 30
0.0
 11
0.0
 21
0.660000019868214
 31
0.0
210
0.0
220
0.0
230
1.0
 40
1.0
 41
-2.3561948100712939
 42
-1.5707963267948966
  0
ELLIPSE
  5
429
100
AcDbEntity
  8
0
  6
CONTINUOUS
 62
          15
100
AcDbEllipse
 10
7.895863537158
 20
11.681578489877
 30
0.0
 11
0.0
 21
0.660000019868214
 31
0.0
210
0.0
220
0.0
230
1.0
 40
1.0
 41
-1.5707963267948966
 42
0.0000000437113821
  0
LINE
  5
42A
100
AcDbEntity
  8
0
  6
CONTINUOUS
 62
          15
100
AcDbLine
 10
-7.86748219063
 20
-0.121777847537
 30
0.0
 11
7.312494623165
 21
-0.121777847537
 31
0.0
  0
LINE
  5
42B
100
AcDbEntity
  8
0
  6
CONTINUOUS
 62
          15
100
AcDbLine
 10
7.972513517836
 20
0.538221973649
 30
0.0
 11
7.972513517836
 21
11.098215933712
 31
0.0
  0
LINE
  5
42C
100
AcDbEntity
  8
0
  6
CONTINUOUS
 62
          15
100
AcDbLine
 10
7.312494623165
 20
11.758215754898
 30
0.0
 11
-7.86748219063
 21
11.758215754898
 31
0.0
  0
LINE
  5
42D
100
AcDbEntity
  8
0
  6
CONTINUOUS
 62
          15
100
AcDbLine
 10
-8.527501085301
 20
11.098215933712
 30
0.0
 11
-8.527501085301
 21
0.538221973649
 31
0.0
  0
ELLIPSE
  5
42E
100
AcDbEntity
  8
0
  6
CONTINUOUS
 62
          15
100
AcDbEllipse
 10
-7.86748219063
 20
11.098215933712
 30
0.0
 11
0.660000019868221
 21
0.0
 31
0.0
210
0.0
220
0.0
230
1.0
 40
1.0
 41
1.5707963705062786
 42
-3.1415925025939972
  0
ELLIPSE
  5
42F
100
AcDbEntity
  8
0
  6
CONTINUOUS
 62
          15
100
AcDbEllipse
 10
-7.86748219063
 20
0.538221973649
 30
0.0
 11
0.660000019868221
 21
0.0
 31
0.0
210
0.0
220
0.0
230
1.0
 40
1.0
 41
-3.1415925025939972
 42
-1.5707963705062786
  0
ELLIPSE
  5
430
100
AcDbEntity
  8
0
  6
CONTINUOUS
 62
          15
100
AcDbEllipse
 10
7.312494623165
 20
0.538221973649
 30
0.0
 11
0.660000019868221
 21
0.0
 31
0.0
210
0.0
220
0.0
230
1.0
 40
1.0
 41
-1.5707963705061925
 42
0.0
  0
ELLIPSE
  5
431
100
AcDbEntity
  8
0
  6
CONTINUOUS
 62
          15
100
AcDbEllipse
 10
7.312494623165
 20
11.098215933712
 30
0.0
 11
0.660000019868221
 21
0.0
 31
0.0
210
0.0
220
0.0
230
1.0
 40
1.0
 41
0.0
 42
1.5707963705061925
  0
LINE
  5
432
100
AcDbEntity
  8
0
  6
CONTINUOUS
 62
          15
100
AcDbLine
 10
10.305963742496
 20
2.871669019394
 30
0.0
 11
10.305963742496
 21
13.4316725162
 31
0.0
  0
LINE
  5
433
100
AcDbEntity
  8
0
  6
CONTINUOUS
 62
          15
100
AcDbLine
 10
9.645970279138
 20
14.091672337386
 30
0.0
 11
-5.53403196597
 21
14.091672337386
 31
0.0
  0
ELLIPSE
  5
434
100
AcDbEntity
  8
0
  6
CONTINUOUS
 62
          15
100
AcDbEllipse
 10
-5.53403196597
 20
13.4316725162
 30
0.0
 11
0.660000019868221
 21
0.0
 31
0.0
210
0.0
220
0.0
230
1.0
 40
1.0
 41
1.5707963705061925
 42
2.3561944961547625
  0
ELLIPSE
  5
435
100
AcDbEntity
  8
0
  6
CONTINUOUS
 62
          15
100
AcDbEllipse
 10
9.645970279138
 20
2.871669019394
 30
0.0
 11
0.660000019868221
 21
0.0
 31
0.0
210
0.0
220
0.0
230
1.0
 40
1.0
 41
-0.7853984832763581
 42
0.0
  0
ELLIPSE
  5
436
100
AcDbEntity
  8
0
  6
CONTINUOUS
 62
          15
100
AcDbEllipse
 10
9.645970279138
 20
13.4316725162
 30
0.0
 11
0.660000019868221
 21
0.0
 31
0.0
210
0.0
220
0.0
230
1.0
 40
1.0
 41
0.0
 42
1.5707963705061925
  0
LINE
  5
437
100
AcDbEntity
  8
0
  6
CONTINUOUS
 62
          15
100
AcDbLine
 10
-8.334172235562
 20
11.564905978644
 30
0.0
 11
-6.000722010902
 21
13.898362561132
 31
0.0
  0
LINE
  5
438
100
AcDbEntity
  8
0
  6
CONTINUOUS
 62
          15
100
AcDbLine
 10
10.11266032407
 20
2.404982153377
 30
0.0
 11
7.779184668096
 21
0.071528749803
 31
0.0
  0
TEXT
  5
439
100
AcDbEntity
  8
0
  6
CONTINUOUS
 62
          15
100
AcDbText
 10
-7.79591847277
 20
3.444858267611
 30
0.0
 40
1.499999900659
  1
TRANSMITTER
 41
0.933333395146
  7
TXT
100
AcDbText
  0
LINE
  5
43A
100
AcDbEntity
  8
0
  6
CONTINUOUS
 62
          15
100
AcDbLine
 10
9.406509025633
 20
2.812216964872
 30
0.0
 11
12.509434520823
 21
2.812216964872
 31
0.0
  0
TEXT
  5
43B
100
AcDbEntity
  8
0
  6
CONTINUOUS
 62
          15
100
AcDbText
 10
13.109435514234
 20
1.595163964921
 30
0.0
 40
1.2
  1
SUPPLY
 41
1.049999882032
  7
GOTHICG
100
AcDbText
  0
TEXT
  5
43C
100
AcDbEntity
  8
0
  6
CONTINUOUS
 62
          15
100
AcDbText
 10
12.509434520823
 20
3.395166945153
 30
0.0
 40
1.2
  1
240 Vac
 41
1.049999882032
  7
GOTHICG
100
AcDbText
  0
TEXT
  5
43D
100
AcDbEntity
  8
0
  6
CONTINUOUS
 62
          15
100
AcDbText
 10
-4.638061339137
 20
6.252055726864
 30
0.0
 40
1.499999900659
  1
REMOTE
 41
0.933333395146
  7
TXT
100
AcDbText
  0
TEXT
  5
43E
100
AcDbEntity
  8
0
  6
CONTINUOUS
 62
          15
100
AcDbText
 10
-3.873952075881
 20
8.736491670748
 30
0.0
 40
1.499999900659
  1
3 GAS
 41
0.933333395146
  7
TXT
100
AcDbText
  0
ENDBLK
  5
43F
100
AcDbEntity
  8
0
  6
BYBLOCK
 62
           0
100
AcDbBlockEnd
  0
BLOCK
  5
440
100
AcDbEntity
  8
0
100
AcDbBlockBegin
  2
SDX_5
 70
          64
 10
0.0
 20
0.0
 30
0.0
  3
SDX_5
  1

  0
LINE
  5
441
100
AcDbEntity
  8
0
  6
CONTINUOUS
 62
          15
100
AcDbLine
 10
-16.249999354283
 20
0.0
 30
0.0
 11
16.249999354283
 21
0.0
 31
0.0
  0
LINE
  5
442
100
AcDbEntity
  8
0
  6
CONTINUOUS
 62
          15
100
AcDbLine
 10
16.249999354283
 20
0.0
 30
0.0
 11
16.249999354283
 21
24.999992648761
 31
0.0
  0
LINE
  5
443
100
AcDbEntity
  8
0
  6
CONTINUOUS
 62
          15
100
AcDbLine
 10
16.249999354283
 20
24.999992648761
 30
0.0
 11
-16.249999354283
 21
24.999992648761
 31
0.0
  0
LINE
  5
444
100
AcDbEntity
  8
0
  6
CONTINUOUS
 62
          15
100
AcDbLine
 10
-16.249999354283
 20
24.999992648761
 30
0.0
 11
-16.249999354283
 21
0.0
 31
0.0
  0
LINE
  5
445
100
AcDbEntity
  8
0
  6
CONTINUOUS
 62
          15
100
AcDbLine
 10
-15.649998360872
 20
0.600000993411
 30
0.0
 11
15.649998360872
 21
0.600000993411
 31
0.0
  0
LINE
  5
446
100
AcDbEntity
  8
0
  6
CONTINUOUS
 62
          15
100
AcDbLine
 10
15.649998360872
 20
0.600000993411
 30
0.0
 11
15.649998360872
 21
24.39999165535
 31
0.0
  0
LINE
  5
447
100
AcDbEntity
  8
0
  6
CONTINUOUS
 62
          15
100
AcDbLine
 10
15.649998360872
 20
24.39999165535
 30
0.0
 11
-15.649998360872
 21
24.39999165535
 31
0.0
  0
LINE
  5
448
100
AcDbEntity
  8
0
  6
CONTINUOUS
 62
          15
100
AcDbLine
 10
-15.649998360872
 20
24.39999165535
 30
0.0
 11
-15.649998360872
 21
0.600000993411
 31
0.0
  0
LINE
  5
449
100
AcDbEntity
  8
0
  6
CONTINUOUS
 62
          15
100
AcDbLine
 10
-13.749999453624
 20
2.499999900659
 30
0.0
 11
13.749999453624
 21
2.499999900659
 31
0.0
  0
LINE
  5
44A
100
AcDbEntity
  8
0
  6
CONTINUOUS
 62
          15
100
AcDbLine
 10
13.749999453624
 20
2.499999900659
 30
0.0
 11
13.749999453624
 21
22.499992748102
 31
0.0
  0
LINE
  5
44B
100
AcDbEntity
  8
0
  6
CONTINUOUS
 62
          15
100
AcDbLine
 10
13.749999453624
 20
22.499992748102
 30
0.0
 11
-13.749999453624
 21
22.499992748102
 31
0.0
  0
LINE
  5
44C
100
AcDbEntity
  8
0
  6
CONTINUOUS
 62
          15
100
AcDbLine
 10
-13.749999453624
 20
22.499992748102
 30
0.0
 11
-13.749999453624
 21
2.499999900659
 31
0.0
  0
LINE
  5
44D
100
AcDbEntity
  8
0
  6
CONTINUOUS
 62
          15
100
AcDbLine
 10
-11.949996473392
 20
11.599998013179
 30
0.0
 11
-9.449996572733
 21
11.599998013179
 31
0.0
  0
LINE
  5
44E
100
AcDbEntity
  8
0
  6
CONTINUOUS
 62
          15
100
AcDbLine
 10
-9.449996572733
 20
11.599998013179
 30
0.0
 11
-9.449996572733
 21
19.399991854032
 31
0.0
  0
LINE
  5
44F
100
AcDbEntity
  8
0
  6
CONTINUOUS
 62
          15
100
AcDbLine
 10
-9.449996572733
 20
19.399991854032
 30
0.0
 11
-11.949996473392
 21
19.399991854032
 31
0.0
  0
LINE
  5
450
100
AcDbEntity
  8
0
  6
CONTINUOUS
 62
          15
100
AcDbLine
 10
-11.949996473392
 20
19.399991854032
 30
0.0
 11
-11.949996473392
 21
11.599998013179
 31
0.0
  0
LINE
  5
451
100
AcDbEntity
  8
0
  6
CONTINUOUS
 62
          15
100
AcDbLine
 10
-3.249994784594
 20
11.599998013179
 30
0.0
 11
-0.749994883935
 21
11.599998013179
 31
0.0
  0
LINE
  5
452
100
AcDbEntity
  8
0
  6
CONTINUOUS
 62
          15
100
AcDbLine
 10
-0.749994883935
 20
11.599998013179
 30
0.0
 11
-0.749994883935
 21
19.399991854032
 31
0.0
  0
LINE
  5
453
100
AcDbEntity
  8
0
  6
CONTINUOUS
 62
          15
100
AcDbLine
 10
-0.749994883935
 20
19.399991854032
 30
0.0
 11
-3.249994784594
 21
19.399991854032
 31
0.0
  0
LINE
  5
454
100
AcDbEntity
  8
0
  6
CONTINUOUS
 62
          15
100
AcDbLine
 10
-3.249994784594
 20
19.399991854032
 30
0.0
 11
-3.249994784594
 21
11.599998013179
 31
0.0
  0
LINE
  5
455
100
AcDbEntity
  8
0
  6
CONTINUOUS
 62
          15
100
AcDbLine
 10
0.950012169281
 20
11.599998013179
 30
0.0
 11
3.45001206994
 21
11.599998013179
 31
0.0
  0
LINE
  5
456
100
AcDbEntity
  8
0
  6
CONTINUOUS
 62
          15
100
AcDbLine
 10
3.45001206994
 20
11.599998013179
 30
0.0
 11
3.45001206994
 21
19.399991854032
 31
0.0
  0
LINE
  5
457
100
AcDbEntity
  8
0
  6
CONTINUOUS
 62
          15
100
AcDbLine
 10
3.45001206994
 20
19.399991854032
 30
0.0
 11
0.950012169281
 21
19.399991854032
 31
0.0
  0
LINE
  5
458
100
AcDbEntity
  8
0
  6
CONTINUOUS
 62
          15
100
AcDbLine
 10
0.950012169281
 20
19.399991854032
 30
0.0
 11
0.950012169281
 21
11.599998013179
 31
0.0
  0
LINE
  5
459
100
AcDbEntity
  8
0
  6
CONTINUOUS
 62
          15
100
AcDbLine
 10
5.149993691842
 20
11.599998013179
 30
0.0
 11
7.649993592501
 21
11.599998013179
 31
0.0
  0
LINE
  5
45A
100
AcDbEntity
  8
0
  6
CONTINUOUS
 62
          15
100
AcDbLine
 10
7.649993592501
 20
11.599998013179
 30
0.0
 11
7.649993592501
 21
19.399991854032
 31
0.0
  0
LINE
  5
45B
100
AcDbEntity
  8
0
  6
CONTINUOUS
 62
          15
100
AcDbLine
 10
7.649993592501
 20
19.399991854032
 30
0.0
 11
5.149993691842
 21
19.399991854032
 31
0.0
  0
LINE
  5
45C
100
AcDbEntity
  8
0
  6
CONTINUOUS
 62
          15
100
AcDbLine
 10
5.149993691842
 20
19.399991854032
 30
0.0
 11
5.149993691842
 21
11.599998013179
 31
0.0
  0
LINE
  5
45D
100
AcDbEntity
  8
0
  6
CONTINUOUS
 62
          15
100
AcDbLine
 10
9.350000645717
 20
11.599998013179
 30
0.0
 11
11.850000546376
 21
11.599998013179
 31
0.0
  0
LINE
  5
45E
100
AcDbEntity
  8
0
  6
CONTINUOUS
 62
          15
100
AcDbLine
 10
11.850000546376
 20
11.599998013179
 30
0.0
 11
11.850000546376
 21
19.399991854032
 31
0.0
  0
LINE
  5
45F
100
AcDbEntity
  8
0
  6
CONTINUOUS
 62
          15
100
AcDbLine
 10
11.850000546376
 20
19.399991854032
 30
0.0
 11
9.350000645717
 21
19.399991854032
 31
0.0
  0
LINE
  5
460
100
AcDbEntity
  8
0
  6
CONTINUOUS
 62
          15
100
AcDbLine
 10
9.350000645717
 20
19.399991854032
 30
0.0
 11
9.350000645717
 21
11.599998013179
 31
0.0
  0
LINE
  5
461
100
AcDbEntity
  8
0
  6
CONTINUOUS
 62
          15
100
AcDbLine
 10
-7.749989519517
 20
11.599998013179
 30
0.0
 11
-5.249989618858
 21
11.599998013179
 31
0.0
  0
LINE
  5
462
100
AcDbEntity
  8
0
  6
CONTINUOUS
 62
          15
100
AcDbLine
 10
-5.249989618858
 20
11.599998013179
 30
0.0
 11
-5.249989618858
 21
19.399991854032
 31
0.0
  0
LINE
  5
463
100
AcDbEntity
  8
0
  6
CONTINUOUS
 62
          15
100
AcDbLine
 10
-5.249989618858
 20
19.399991854032
 30
0.0
 11
-7.749989519517
 21
19.399991854032
 31
0.0
  0
LINE
  5
464
100
AcDbEntity
  8
0
  6
CONTINUOUS
 62
          15
100
AcDbLine
 10
-7.749989519517
 20
19.399991854032
 30
0.0
 11
-7.749989519517
 21
11.599998013179
 31
0.0
  0
CIRCLE
  5
465
100
AcDbEntity
  8
0
  6
CONTINUOUS
 62
          15
100
AcDbCircle
 10
-9.749984353781
 20
7.000000993411
 30
0.0
 40
0.5
  0
CIRCLE
  5
466
100
AcDbEntity
  8
0
  6
CONTINUOUS
 62
          15
100
AcDbCircle
 10
-9.749984353781
 20
9.50000089407
 30
0.0
 40
0.5
  0
LINE
  5
467
100
AcDbEntity
  8
0
  6
CONTINUOUS
 62
          15
100
AcDbLine
 10
-12.24998425444
 20
10.999997019768
 30
0.0
 11
12.250009685754
 21
10.999997019768
 31
0.0
  0
LINE
  5
468
100
AcDbEntity
  8
0
  6
CONTINUOUS
 62
          15
100
AcDbLine
 10
-13.249994387229
 20
10.499998311202
 30
0.0
 11
13.116022224584
 21
10.499998311202
 31
0.0
  0
LINE
  5
469
100
AcDbEntity
  8
0
  6
CONTINUOUS
 62
          15
100
AcDbLine
 10
-3.249994784594
 20
9.999999602636
 30
0.0
 11
13.24999438723
 21
9.999999602636
 31
0.0
  0
LINE
  5
46A
100
AcDbEntity
  8
0
  6
CONTINUOUS
 62
          15
100
AcDbLine
 10
-2.749989718199
 20
9.50000089407
 30
0.0
 11
13.24999438723
 21
9.50000089407
 31
0.0
  0
LINE
  5
46B
100
AcDbEntity
  8
0
  6
CONTINUOUS
 62
          15
100
AcDbLine
 10
-2.249984651805
 20
9.000002185504
 30
0.0
 11
13.24999438723
 21
9.000002185504
 31
0.0
  0
LINE
  5
46C
100
AcDbEntity
  8
0
  6
CONTINUOUS
 62
          15
100
AcDbLine
 10
-1.750005016724
 20
8.499997119109
 30
0.0
 11
13.24999438723
 21
8.499997119109
 31
0.0
  0
LINE
  5
46D
100
AcDbEntity
  8
0
  6
CONTINUOUS
 62
          15
100
AcDbLine
 10
-12.24998425444
 20
4.000002384186
 30
0.0
 11
12.250009685754
 21
4.000002384186
 31
0.0
  0
LINE
  5
46E
100
AcDbEntity
  8
0
  6
CONTINUOUS
 62
          15
100
AcDbLine
 10
-13.116022224584
 20
4.500001092752
 30
0.0
 11
13.116022224584
 21
4.500001092752
 31
0.0
  0
LINE
  5
46F
100
AcDbEntity
  8
0
  6
CONTINUOUS
 62
          15
100
AcDbLine
 10
-13.249994387229
 20
4.999999801318
 30
0.0
 11
-3.134612912551
 21
4.999999801318
 31
0.0
  0
LINE
  5
470
100
AcDbEntity
  8
0
  6
CONTINUOUS
 62
          15
100
AcDbLine
 10
-13.249994387229
 20
5.499998509884
 30
0.0
 11
-3.596165832036
 21
5.499998509884
 31
0.0
  0
LINE
  5
471
100
AcDbEntity
  8
0
  6
CONTINUOUS
 62
          15
100
AcDbLine
 10
-13.249994387229
 20
5.99999721845
 30
0.0
 11
-4.057693320207
 21
5.99999721845
 31
0.0
  0
TEXT
  5
472
100
AcDbEntity
  8
0
  6
CONTINUOUS
 62
          15
100
AcDbText
 10
5.749994685253
 20
5.999999043842
 30
0.0
 40
1.399999900659
  1
SDX-15
 41
0.764285765857
  7
ROMAND
100
AcDbText
  0
LINE
  5
473
100
AcDbEntity
  8
0
  6
CONTINUOUS
 62
          15
100
AcDbLine
 10
-12.24998425444
 20
21.999987681707
 30
0.0
 11
12.250009685754
 21
21.999987681707
 31
0.0
  0
LINE
  5
474
100
AcDbEntity
  8
0
  6
CONTINUOUS
 62
          15
100
AcDbLine
 10
-13.116022224584
 20
21.49999533097
 30
0.0
 11
13.116022224584
 21
21.49999533097
 31
0.0
  0
LINE
  5
475
100
AcDbEntity
  8
0
  6
CONTINUOUS
 62
          15
100
AcDbLine
 10
-13.249994387229
 20
19.999992847443
 30
0.0
 11
13.24999438723
 21
19.999992847443
 31
0.0
  0
TEXT
  5
476
100
AcDbEntity
  8
0
  6
CONTINUOUS
 62
          15
100
AcDbText
 10
-9.153823488799
 20
20.26478319308
 30
0.0
 40
1.0
  1
MEDICAL GAS ALARM
 41
1.069999996275
  7
ROMAND
100
AcDbText
  0
ENDBLK
  5
477
100
AcDbEntity
  8
0
  6
BYBLOCK
 62
           0
100
AcDbBlockEnd
  0
BLOCK
  5
478
100
AcDbEntity
  8
0
100
AcDbBlockBegin
  2
PLANT_6
 70
          64
 10
0.0
 20
0.0
 30
0.0
  3
PLANT_6
  1

  0
LINE
  5
479
100
AcDbEntity
  8
0
  6
CONTINUOUS
 62
          15
100
AcDbLine
 10
16.5
 20
2.625
 30
0.0
 11
23.650207519531
 21
2.625
 31
0.0
  0
LINE
  5
47A
100
AcDbEntity
  8
0
  6
CONTINUOUS
 62
          15
100
AcDbLine
 10
1.875
 20
2.625
 30
0.0
 11
14.625
 21
2.625
 31
0.0
  0
LINE
  5
47B
100
AcDbEntity
  8
0
  6
CONTINUOUS
 62
          15
100
AcDbLine
 10
-7.150207519531
 20
2.625
 30
0.0
 11
0.0
 21
2.625
 31
0.0
  0
LINE
  5
47C
100
AcDbEntity
  8
0
  6
CONTINUOUS
 62
          15
100
AcDbLine
 10
23.25
 20
2.625
 30
0.0
 11
23.25
 21
15.374999046326
 31
0.0
  0
LINE
  5
47D
100
AcDbEntity
  8
0
  6
CONTINUOUS
 62
          15
100
AcDbLine
 10
-5.25
 20
15.374999046326
 30
0.0
 11
-7.150207519531
 21
15.374999046326
 31
0.0
  0
LINE
  5
47E
100
AcDbEntity
  8
0
  6
CONTINUOUS
 62
          15
100
AcDbLine
 10
3.75
 20
15.374999046326
 30
0.0
 11
-0.75
 21
15.374999046326
 31
0.0
  0
LINE
  5
47F
100
AcDbEntity
  8
0
  6
CONTINUOUS
 62
          15
100
AcDbLine
 10
17.25
 20
15.374999046326
 30
0.0
 11
12.75
 21
15.374999046326
 31
0.0
  0
LINE
  5
480
100
AcDbEntity
  8
0
  6
CONTINUOUS
 62
          15
100
AcDbLine
 10
23.650207519531
 20
15.374999046326
 30
0.0
 11
21.75
 21
15.374999046326
 31
0.0
  0
LINE
  5
481
100
AcDbEntity
  8
0
  6
CONTINUOUS
 62
          15
100
AcDbLine
 10
-6.75
 20
15.374999046326
 30
0.0
 11
-6.75
 21
2.625
 31
0.0
  0
LINE
  5
482
100
AcDbEntity
  8
0
  6
CONTINUOUS
 62
          15
100
AcDbLine
 10
3.75
 20
15.374999046326
 30
0.0
 11
3.75
 21
26.812500953674
 31
0.0
  0
LINE
  5
483
100
AcDbEntity
  8
0
  6
CONTINUOUS
 62
          15
100
AcDbLine
 10
3.75
 20
14.999999046326
 30
0.0
 11
3.75
 21
15.374999046326
 31
0.0
  0
LINE
  5
484
100
AcDbEntity
  8
0
  6
CONTINUOUS
 62
          15
100
AcDbLine
 10
12.75
 20
14.999999046326
 30
0.0
 11
12.75
 21
26.812500953674
 31
0.0
  0
LINE
  5
485
100
AcDbEntity
  8
0
  6
CONTINUOUS
 62
          15
100
AcDbLine
 10
3.75
 20
14.999999046326
 30
0.0
 11
12.75
 21
14.999999046326
 31
0.0
  0
ARC
  5
486
100
AcDbEntity
  8
0
  6
CONTINUOUS
 62
          15
100
AcDbCircle
 10
-2.6015625
 20
8.999999046326
 30
0.0
 40
8.2734375
100
AcDbArc
 50
135.307905269407
 51
224.692094730593
  0
ARC
  5
487
100
AcDbEntity
  8
0
  6
CONTINUOUS
 62
          15
100
AcDbCircle
 10
19.1015625
 20
8.999999046326
 30
0.0
 40
8.2734375
100
AcDbArc
 50
315.30790026045
 51
44.692099739549
  0
ARC
  5
488
100
AcDbEntity
  8
0
  6
CONTINUOUS
 62
          15
100
AcDbCircle
 10
-7.150207519531
 20
4.5
 30
0.0
 40
1.875
100
AcDbArc
 50
224.692094730593
 51
269.999997495521
  0
ARC
  5
489
100
AcDbEntity
  8
0
  6
CONTINUOUS
 62
          15
100
AcDbCircle
 10
-7.150207519531
 20
13.499999046326
 30
0.0
 40
1.875
100
AcDbArc
 50
90.000002504478
 51
135.307905269407
  0
ARC
  5
48A
100
AcDbEntity
  8
0
  6
CONTINUOUS
 62
          15
100
AcDbCircle
 10
23.650207519531
 20
13.499999046326
 30
0.0
 40
1.875
100
AcDbArc
 50
44.692099739549
 51
90.000002504478
  0
ARC
  5
48B
100
AcDbEntity
  8
0
  6
CONTINUOUS
 62
          15
100
AcDbCircle
 10
23.650207519531
 20
4.5
 30
0.0
 40
1.875
100
AcDbArc
 50
269.999997495521
 51
315.30790026045
  0
LINE
  5
48C
100
AcDbEntity
  8
0
  6
CONTINUOUS
 62
          15
100
AcDbLine
 10
1.875
 20
0.0
 30
0.0
 11
1.875
 21
3.375
 31
0.0
  0
LINE
  5
48D
100
AcDbEntity
  8
0
  6
CONTINUOUS
 62
          15
100
AcDbLine
 10
14.625
 20
0.0
 30
0.0
 11
14.625
 21
3.375
 31
0.0
  0
LINE
  5
48E
100
AcDbEntity
  8
0
  6
CONTINUOUS
 62
          15
100
AcDbLine
 10
0.0
 20
0.0
 30
0.0
 11
0.0
 21
3.375
 31
0.0
  0
LINE
  5
48F
100
AcDbEntity
  8
0
  6
CONTINUOUS
 62
          15
100
AcDbLine
 10
16.5
 20
0.0
 30
0.0
 11
16.5
 21
3.375
 31
0.0
  0
LINE
  5
490
100
AcDbEntity
  8
0
  6
CONTINUOUS
 62
          15
100
AcDbLine
 10
14.625
 20
0.0
 30
0.0
 11
16.5
 21
0.0
 31
0.0
  0
LINE
  5
491
100
AcDbEntity
  8
0
  6
CONTINUOUS
 62
          15
100
AcDbLine
 10
0.0
 20
0.0
 30
0.0
 11
1.875
 21
0.0
 31
0.0
  0
LINE
  5
492
100
AcDbEntity
  8
0
  6
CONTINUOUS
 62
          15
100
AcDbLine
 10
14.625
 20
3.375
 30
0.0
 11
16.5
 21
3.375
 31
0.0
  0
CIRCLE
  5
493
100
AcDbEntity
  8
0
  6
CONTINUOUS
 62
          15
100
AcDbCircle
 10
-3.0
 20
19.874999046326
 30
0.0
 40
1.3125
  0
CIRCLE
  5
494
100
AcDbEntity
  8
0
  6
CONTINUOUS
 62
          15
100
AcDbCircle
 10
-3.0
 20
19.874999046326
 30
0.0
 40
0.5625
  0
ARC
  5
495
100
AcDbEntity
  8
0
  6
CONTINUOUS
 62
          15
100
AcDbCircle
 10
-3.0
 20
19.874999046326
 30
0.0
 40
2.25
100
AcDbArc
 50
199.471225069349
 51
336.443536448913
  0
ARC
  5
496
100
AcDbEntity
  8
0
  6
CONTINUOUS
 62
          15
100
AcDbCircle
 10
-3.0
 20
19.874999046326
 30
0.0
 40
2.25
100
AcDbArc
 50
23.556463551086
 51
146.442684560036
  0
LINE
  5
497
100
AcDbEntity
  8
0
  6
CONTINUOUS
 62
          15
100
AcDbLine
 10
-0.9375
 20
17.624999046326
 30
0.0
 11
-0.9375
 21
22.125000953674
 31
0.0
  0
LINE
  5
498
100
AcDbEntity
  8
0
  6
CONTINUOUS
 62
          15
100
AcDbLine
 10
1.6875
 20
17.624999046326
 30
0.0
 11
1.6875
 21
22.125000953674
 31
0.0
  0
LINE
  5
499
100
AcDbEntity
  8
0
  6
CONTINUOUS
 62
          15
100
AcDbLine
 10
-4.875
 20
19.124999046326
 30
0.0
 11
-4.875
 21
21.375000953674
 31
0.0
  0
LINE
  5
49A
100
AcDbEntity
  8
0
  6
CONTINUOUS
 62
          15
100
AcDbLine
 10
-6.1875
 20
19.124999046326
 30
0.0
 11
-6.1875
 21
21.375000953674
 31
0.0
  0
LINE
  5
49B
100
AcDbEntity
  8
0
  6
CONTINUOUS
 62
          15
100
AcDbLine
 10
-0.9375
 20
22.125000953674
 30
0.0
 11
1.6875
 21
22.125000953674
 31
0.0
  0
LINE
  5
49C
100
AcDbEntity
  8
0
  6
CONTINUOUS
 62
          15
100
AcDbLine
 10
-0.9375
 20
17.624999046326
 30
0.0
 11
1.6875
 21
17.624999046326
 31
0.0
  0
LINE
  5
49D
100
AcDbEntity
  8
0
  6
CONTINUOUS
 62
          15
100
AcDbLine
 10
-6.1875
 20
19.124999046326
 30
0.0
 11
-4.875
 21
19.124999046326
 31
0.0
  0
LINE
  5
49E
100
AcDbEntity
  8
0
  6
CONTINUOUS
 62
          15
100
AcDbLine
 10
-6.1875
 20
21.375000953674
 30
0.0
 11
-4.875
 21
21.375000953674
 31
0.0
  0
LINE
  5
49F
100
AcDbEntity
  8
0
  6
CONTINUOUS
 62
          15
100
AcDbLine
 10
-4.875
 20
17.357432365417
 30
0.0
 11
-1.125
 21
17.357432365417
 31
0.0
  0
LINE
  5
4A0
100
AcDbEntity
  8
0
  6
CONTINUOUS
 62
          15
100
AcDbLine
 10
-5.25
 20
16.864609718323
 30
0.0
 11
-0.75
 21
16.864609718323
 31
0.0
  0
LINE
  5
4A1
100
AcDbEntity
  8
0
  6
CONTINUOUS
 62
          15
100
AcDbLine
 10
-4.875
 20
16.864609718323
 30
0.0
 11
-4.875
 21
17.357432365417
 31
0.0
  0
LINE
  5
4A2
100
AcDbEntity
  8
0
  6
CONTINUOUS
 62
          15
100
AcDbLine
 10
-1.125
 20
16.864609718323
 30
0.0
 11
-1.125
 21
17.357432365417
 31
0.0
  0
LINE
  5
4A3
100
AcDbEntity
  8
0
  6
CONTINUOUS
 62
          15
100
AcDbLine
 10
-5.25
 20
13.864609718323
 30
0.0
 11
-5.25
 21
16.864609718323
 31
0.0
  0
LINE
  5
4A4
100
AcDbEntity
  8
0
  6
CONTINUOUS
 62
          15
100
AcDbLine
 10
-0.75
 20
13.864609718323
 30
0.0
 11
-0.75
 21
16.864609718323
 31
0.0
  0
LINE
  5
4A5
100
AcDbEntity
  8
0
  6
CONTINUOUS
 62
          15
100
AcDbLine
 10
-1.488067626953
 20
13.864609718323
 30
0.0
 11
-0.75
 21
13.864609718323
 31
0.0
  0
LINE
  5
4A6
100
AcDbEntity
  8
0
  6
CONTINUOUS
 62
          15
100
AcDbLine
 10
-5.25
 20
13.864609718323
 30
0.0
 11
-4.511932373047
 21
13.864609718323
 31
0.0
  0
ARC
  5
4A7
100
AcDbEntity
  8
0
  6
CONTINUOUS
 62
          15
100
AcDbCircle
 10
-3.0
 20
11.999999046326
 30
0.0
 40
2.400565862656
100
AcDbArc
 50
50.962855435403
 51
129.037149573553
  0
CIRCLE
  5
4A8
100
AcDbEntity
  8
0
  6
CONTINUOUS
 62
          15
100
AcDbCircle
 10
19.5
 20
19.874999046326
 30
0.0
 40
1.3125
  0
CIRCLE
  5
4A9
100
AcDbEntity
  8
0
  6
CONTINUOUS
 62
          15
100
AcDbCircle
 10
19.5
 20
19.874999046326
 30
0.0
 40
0.5625
  0
ARC
  5
4AA
100
AcDbEntity
  8
0
  6
CONTINUOUS
 62
          15
100
AcDbCircle
 10
19.5
 20
19.874999046326
 30
0.0
 40
2.25
100
AcDbArc
 50
199.471225069349
 51
336.443536448913
  0
ARC
  5
4AB
100
AcDbEntity
  8
0
  6
CONTINUOUS
 62
          15
100
AcDbCircle
 10
19.5
 20
19.874999046326
 30
0.0
 40
2.25
100
AcDbArc
 50
23.556463551086
 51
146.442684560036
  0
LINE
  5
4AC
100
AcDbEntity
  8
0
  6
CONTINUOUS
 62
          15
100
AcDbLine
 10
21.5625
 20
17.624999046326
 30
0.0
 11
21.5625
 21
22.125000953674
 31
0.0
  0
LINE
  5
4AD
100
AcDbEntity
  8
0
  6
CONTINUOUS
 62
          15
100
AcDbLine
 10
24.1875
 20
17.624999046326
 30
0.0
 11
24.1875
 21
22.125000953674
 31
0.0
  0
LINE
  5
4AE
100
AcDbEntity
  8
0
  6
CONTINUOUS
 62
          15
100
AcDbLine
 10
17.625
 20
19.124999046326
 30
0.0
 11
17.625
 21
21.375000953674
 31
0.0
  0
LINE
  5
4AF
100
AcDbEntity
  8
0
  6
CONTINUOUS
 62
          15
100
AcDbLine
 10
16.3125
 20
19.124999046326
 30
0.0
 11
16.3125
 21
21.375000953674
 31
0.0
  0
LINE
  5
4B0
100
AcDbEntity
  8
0
  6
CONTINUOUS
 62
          15
100
AcDbLine
 10
21.5625
 20
22.125000953674
 30
0.0
 11
24.1875
 21
22.125000953674
 31
0.0
  0
LINE
  5
4B1
100
AcDbEntity
  8
0
  6
CONTINUOUS
 62
          15
100
AcDbLine
 10
21.5625
 20
17.624999046326
 30
0.0
 11
24.1875
 21
17.624999046326
 31
0.0
  0
LINE
  5
4B2
100
AcDbEntity
  8
0
  6
CONTINUOUS
 62
          15
100
AcDbLine
 10
16.3125
 20
19.124999046326
 30
0.0
 11
17.625
 21
19.124999046326
 31
0.0
  0
LINE
  5
4B3
100
AcDbEntity
  8
0
  6
CONTINUOUS
 62
          15
100
AcDbLine
 10
16.3125
 20
21.375000953674
 30
0.0
 11
17.625
 21
21.375000953674
 31
0.0
  0
LINE
  5
4B4
100
AcDbEntity
  8
0
  6
CONTINUOUS
 62
          15
100
AcDbLine
 10
17.625
 20
17.357432365417
 30
0.0
 11
21.375
 21
17.357432365417
 31
0.0
  0
LINE
  5
4B5
100
AcDbEntity
  8
0
  6
CONTINUOUS
 62
          15
100
AcDbLine
 10
17.25
 20
16.864609718323
 30
0.0
 11
21.75
 21
16.864609718323
 31
0.0
  0
LINE
  5
4B6
100
AcDbEntity
  8
0
  6
CONTINUOUS
 62
          15
100
AcDbLine
 10
17.625
 20
16.864609718323
 30
0.0
 11
17.625
 21
17.357432365417
 31
0.0
  0
LINE
  5
4B7
100
AcDbEntity
  8
0
  6
CONTINUOUS
 62
          15
100
AcDbLine
 10
21.375
 20
16.864609718323
 30
0.0
 11
21.375
 21
17.357432365417
 31
0.0
  0
LINE
  5
4B8
100
AcDbEntity
  8
0
  6
CONTINUOUS
 62
          15
100
AcDbLine
 10
17.25
 20
13.864609718323
 30
0.0
 11
17.25
 21
16.864609718323
 31
0.0
  0
LINE
  5
4B9
100
AcDbEntity
  8
0
  6
CONTINUOUS
 62
          15
100
AcDbLine
 10
21.75
 20
13.864609718323
 30
0.0
 11
21.75
 21
16.864609718323
 31
0.0
  0
LINE
  5
4BA
100
AcDbEntity
  8
0
  6
CONTINUOUS
 62
          15
100
AcDbLine
 10
21.011901855469
 20
13.864609718323
 30
0.0
 11
21.75
 21
13.864609718323
 31
0.0
  0
LINE
  5
4BB
100
AcDbEntity
  8
0
  6
CONTINUOUS
 62
          15
100
AcDbLine
 10
17.25
 20
13.864609718323
 30
0.0
 11
17.988037109375
 21
13.864609718323
 31
0.0
  0
ARC
  5
4BC
100
AcDbEntity
  8
0
  6
CONTINUOUS
 62
          15
100
AcDbCircle
 10
19.5
 20
11.999999046326
 30
0.0
 40
2.400565862656
100
AcDbArc
 50
50.962855435403
 51
129.037149573553
  0
LINE
  5
4BD
100
AcDbEntity
  8
0
  6
CONTINUOUS
 62
          15
100
AcDbLine
 10
0.0
 20
3.375
 30
0.0
 11
1.875
 21
3.375
 31
0.0
  0
LINE
  5
4BE
100
AcDbEntity
  8
0
  6
CONTINUOUS
 62
          15
100
AcDbLine
 10
4.087493896484
 20
22.537499427795
 30
0.0
 11
4.087493896484
 21
26.474999427795
 31
0.0
  0
LINE
  5
4BF
100
AcDbEntity
  8
0
  6
CONTINUOUS
 62
          15
100
AcDbLine
 10
4.087493896484
 20
15.337500572205
 30
0.0
 11
4.087493896484
 21
22.199997901917
 31
0.0
  0
LINE
  5
4C0
100
AcDbEntity
  8
0
  6
CONTINUOUS
 62
          15
100
AcDbLine
 10
12.412475585938
 20
22.537499427795
 30
0.0
 11
12.412475585938
 21
26.474999427795
 31
0.0
  0
LINE
  5
4C1
100
AcDbEntity
  8
0
  6
CONTINUOUS
 62
          15
100
AcDbLine
 10
12.412475585938
 20
15.337500572205
 30
0.0
 11
12.412475585938
 21
22.199997901917
 31
0.0
  0
LINE
  5
4C2
100
AcDbEntity
  8
0
  6
CONTINUOUS
 62
          15
100
AcDbLine
 10
3.75
 20
26.812500953674
 30
0.0
 11
12.75
 21
26.812500953674
 31
0.0
  0
LINE
  5
4C3
100
AcDbEntity
  8
0
  6
CONTINUOUS
 62
          15
100
AcDbLine
 10
4.087493896484
 20
26.474999427795
 30
0.0
 11
12.412475585938
 21
26.474999427795
 31
0.0
  0
LINE
  5
4C4
100
AcDbEntity
  8
0
  6
CONTINUOUS
 62
          15
100
AcDbLine
 10
4.087493896484
 20
22.537499427795
 30
0.0
 11
12.412475585938
 21
22.537499427795
 31
0.0
  0
LINE
  5
4C5
100
AcDbEntity
  8
0
  6
CONTINUOUS
 62
          15
100
AcDbLine
 10
9.224975585938
 20
22.199997901917
 30
0.0
 11
12.412475585938
 21
22.199997901917
 31
0.0
  0
LINE
  5
4C6
100
AcDbEntity
  8
0
  6
CONTINUOUS
 62
          15
100
AcDbLine
 10
4.087493896484
 20
22.199997901917
 30
0.0
 11
7.274993896484
 21
22.199997901917
 31
0.0
  0
LINE
  5
4C7
100
AcDbEntity
  8
0
  6
CONTINUOUS
 62
          15
100
AcDbLine
 10
9.224975585938
 20
15.337500572205
 30
0.0
 11
12.412475585938
 21
15.337500572205
 31
0.0
  0
LINE
  5
4C8
100
AcDbEntity
  8
0
  6
CONTINUOUS
 62
          15
100
AcDbLine
 10
4.087493896484
 20
15.337500572205
 30
0.0
 11
7.274993896484
 21
15.337500572205
 31
0.0
  0
LINE
  5
4C9
100
AcDbEntity
  8
0
  6
CONTINUOUS
 62
          15
100
AcDbLine
 10
7.274993896484
 20
15.337500572205
 30
0.0
 11
7.274993896484
 21
22.199997901917
 31
0.0
  0
LINE
  5
4CA
100
AcDbEntity
  8
0
  6
CONTINUOUS
 62
          15
100
AcDbLine
 10
9.224975585938
 20
15.337500572205
 30
0.0
 11
9.224975585938
 21
22.199997901917
 31
0.0
  0
CIRCLE
  5
4CB
100
AcDbEntity
  8
0
  6
CONTINUOUS
 62
          15
100
AcDbCircle
 10
8.25
 20
20.121876716614
 30
0.0
 40
0.75
  0
CIRCLE
  5
4CC
100
AcDbEntity
  8
0
  6
CONTINUOUS
 62
          15
100
AcDbCircle
 10
8.25
 20
18.021216392517
 30
0.0
 40
0.75
  0
ENDBLK
  5
4CD
100
AcDbEntity
  8
0
  6
BYBLOCK
 62
           0
100
AcDbBlockEnd
  0
BLOCK
  5
4CE
100
AcDbEntity
  8
0
100
AcDbBlockBegin
  2
TB4C_7
 70
          64
 10
0.0
 20
0.0
 30
0.0
  3
TB4C_7
  1

  0
LINE
  5
4CF
100
AcDbEntity
  8
0
  6
CONTINUOUS
 62
          15
100
AcDbLine
 10
0.130859375
 20
-21.06421661377
 30
0.0
 11
15.380855560303
 21
-21.06421661377
 31
0.0
  0
LINE
  5
4D0
100
AcDbEntity
  8
0
  6
CONTINUOUS
 62
          15
100
AcDbLine
 10
20.780162811279
 20
-26.187351226807
 30
0.0
 11
22.780162811279
 21
-26.187351226807
 31
0.0
  0
LINE
  5
4D1
100
AcDbEntity
  8
0
  6
CONTINUOUS
 62
          15
100
AcDbLine
 10
13.380855560303
 20
-26.187351226807
 30
0.0
 11
15.780162811279
 21
-26.187351226807
 31
0.0
  0
LINE
  5
4D2
100
AcDbEntity
  8
0
  6
CONTINUOUS
 62
          15
100
AcDbLine
 10
20.780162811279
 20
-36.187351226807
 30
0.0
 11
22.780162811279
 21
-36.187351226807
 31
0.0
  0
LINE
  5
4D3
100
AcDbEntity
  8
0
  6
CONTINUOUS
 62
          15
100
AcDbLine
 10
13.380855560303
 20
-36.187351226807
 30
0.0
 11
15.780162811279
 21
-36.187351226807
 31
0.0
  0
LINE
  5
4D4
100
AcDbEntity
  8
0
  6
CONTINUOUS
 62
          15
100
AcDbLine
 10
8.880859375
 20
-36.187351226807
 30
0.0
 11
13.380855560303
 21
-36.187351226807
 31
0.0
  0
LINE
  5
4D5
100
AcDbEntity
  8
0
  6
CONTINUOUS
 62
          15
100
AcDbLine
 10
20.780162811279
 20
-41.187351226807
 30
0.0
 11
22.780162811279
 21
-41.187351226807
 31
0.0
  0
LINE
  5
4D6
100
AcDbEntity
  8
0
  6
CONTINUOUS
 62
          15
100
AcDbLine
 10
13.380855560303
 20
-41.187351226807
 30
0.0
 11
15.780162811279
 21
-41.187351226807
 31
0.0
  0
LINE
  5
4D7
100
AcDbEntity
  8
0
  6
CONTINUOUS
 62
          15
100
AcDbLine
 10
6.630859375
 20
-41.187351226807
 30
0.0
 11
13.380855560303
 21
-41.187351226807
 31
0.0
  0
LINE
  5
4D8
100
AcDbEntity
  8
0
  6
CONTINUOUS
 62
          15
100
AcDbLine
 10
20.780162811279
 20
-26.187351226807
 30
0.0
 11
20.780162811279
 21
-24.187351226807
 31
0.0
  0
LINE
  5
4D9
100
AcDbEntity
  8
0
  6
CONTINUOUS
 62
          15
100
AcDbLine
 10
20.780162811279
 20
-36.187351226807
 30
0.0
 11
20.780162811279
 21
-34.187351226807
 31
0.0
  0
LINE
  5
4DA
100
AcDbEntity
  8
0
  6
CONTINUOUS
 62
          15
100
AcDbLine
 10
20.780162811279
 20
-41.187351226807
 30
0.0
 11
20.780162811279
 21
-39.187351226807
 31
0.0
  0
LINE
  5
4DB
100
AcDbEntity
  8
0
  6
CONTINUOUS
 62
          15
100
AcDbLine
 10
15.780162811279
 20
-41.187351226807
 30
0.0
 11
21.280162811279
 21
-39.187351226807
 31
0.0
  0
LINE
  5
4DC
100
AcDbEntity
  8
0
  6
CONTINUOUS
 62
          15
100
AcDbLine
 10
15.780162811279
 20
-36.187351226807
 30
0.0
 11
21.280162811279
 21
-34.187351226807
 31
0.0
  0
LINE
  5
4DD
100
AcDbEntity
  8
0
  6
CONTINUOUS
 62
          15
100
AcDbLine
 10
15.780162811279
 20
-26.187351226807
 30
0.0
 11
21.280162811279
 21
-24.187351226807
 31
0.0
  0
LINE
  5
4DE
100
AcDbEntity
  8
0
  6
CONTINUOUS
 62
          15
100
AcDbLine
 10
4.380859375
 20
-46.187352180481
 30
0.0
 11
35.124782562256
 21
-46.187352180481
 31
0.0
  0
LINE
  5
4DF
100
AcDbEntity
  8
0
  6
CONTINUOUS
 62
          15
100
AcDbLine
 10
0.130859375
 20
-21.06421661377
 30
0.0
 11
0.130859375
 21
-0.076000213623
 31
0.0
  0
LINE
  5
4E0
100
AcDbEntity
  8
0
  6
CONTINUOUS
 62
          15
100
AcDbLine
 10
15.380855560303
 20
-21.06421661377
 30
0.0
 11
15.380855560303
 21
-0.076000213623
 31
0.0
  0
LINE
  5
4E1
100
AcDbEntity
  8
0
  6
CONTINUOUS
 62
          15
100
AcDbLine
 10
1.130859375
 20
-21.06421661377
 30
0.0
 11
1.130859375
 21
-13.780921936035
 31
0.0
  0
LINE
  5
4E2
100
AcDbEntity
  8
0
  6
CONTINUOUS
 62
          15
100
AcDbLine
 10
13.380855560303
 20
-26.187351226807
 30
0.0
 11
13.380855560303
 21
-21.06421661377
 31
0.0
  0
LINE
  5
4E3
100
AcDbEntity
  8
0
  6
CONTINUOUS
 62
          15
100
AcDbLine
 10
8.880859375
 20
-36.187351226807
 30
0.0
 11
8.880859375
 21
-21.06421661377
 31
0.0
  0
LINE
  5
4E4
100
AcDbEntity
  8
0
  6
CONTINUOUS
 62
          15
100
AcDbLine
 10
6.630859375
 20
-41.187351226807
 30
0.0
 11
6.630859375
 21
-21.06421661377
 31
0.0
  0
LINE
  5
4E5
100
AcDbEntity
  8
0
  6
CONTINUOUS
 62
          15
100
AcDbLine
 10
4.380859375
 20
-46.187352180481
 30
0.0
 11
4.380859375
 21
-21.06421661377
 31
0.0
  0
LINE
  5
4E6
100
AcDbEntity
  8
0
  6
CONTINUOUS
 62
          15
100
AcDbLine
 10
14.380855560303
 20
-21.06421661377
 30
0.0
 11
14.380855560303
 21
-13.780921936035
 31
0.0
  0
LINE
  5
4E7
100
AcDbEntity
  8
0
  6
CONTINUOUS
 62
          15
100
AcDbLine
 10
22.780162811279
 20
-26.187351226807
 30
0.0
 11
24.255222320557
 21
-26.187351226807
 31
0.0
  0
LINE
  5
4E8
100
AcDbEntity
  8
0
  6
CONTINUOUS
 62
          15
100
AcDbLine
 10
22.780162811279
 20
-36.187351226807
 30
0.0
 11
35.124782562256
 21
-36.187351226807
 31
0.0
  0
LINE
  5
4E9
100
AcDbEntity
  8
0
  6
CONTINUOUS
 62
          15
100
AcDbLine
 10
22.780162811279
 20
-41.187351226807
 30
0.0
 11
35.124782562256
 21
-41.187351226807
 31
0.0
  0
TEXT
  5
4EA
100
AcDbEntity
  8
0
  6
CONTINUOUS
 62
          15
100
AcDbText
 10
3.874931335449
 20
-48.718865349889
 30
0.0
 40
1.350000023842
  1
CONTACTS & PRESSURE SWITCHES
 41
1.111111091488
  7
GOTHICI
100
AcDbText
  0
LINE
  5
4EB
100
AcDbEntity
  8
0
  6
CONTINUOUS
 62
          15
100
AcDbLine
 10
0.130859375
 20
-0.076000213623
 30
0.0
 11
15.380855560303
 21
-0.076000213623
 31
0.0
  0
LINE
  5
4EC
100
AcDbEntity
  8
0
  6
CONTINUOUS
 62
          15
100
AcDbLine
 10
1.130859375
 20
-7.141868591309
 30
0.0
 11
1.130859375
 21
-0.076000213623
 31
0.0
  0
LINE
  5
4ED
100
AcDbEntity
  8
0
  6
CONTINUOUS
 62
          15
100
AcDbLine
 10
14.380855560303
 20
-7.141868591309
 30
0.0
 11
14.380855560303
 21
-0.076000213623
 31
0.0
  0
LINE
  5
4EE
100
AcDbEntity
  8
0
  6
CONTINUOUS
 62
          15
100
AcDbLine
 10
1.130859375
 20
-13.780921936035
 30
0.0
 11
14.380855560303
 21
-13.780921936035
 31
0.0
  0
LINE
  5
4EF
100
AcDbEntity
  8
0
  6
CONTINUOUS
 62
          15
100
AcDbLine
 10
1.130859375
 20
-16.780921936035
 30
0.0
 11
14.380855560303
 21
-16.780921936035
 31
0.0
  0
CIRCLE
  5
4F0
100
AcDbEntity
  8
0
  6
CONTINUOUS
 62
          15
100
AcDbCircle
 10
2.130859375
 20
-15.280921936035
 30
0.0
 40
0.5
  0
CIRCLE
  5
4F1
100
AcDbEntity
  8
0
  6
CONTINUOUS
 62
          15
100
AcDbCircle
 10
4.380859375
 20
-15.280921936035
 30
0.0
 40
0.5
  0
CIRCLE
  5
4F2
100
AcDbEntity
  8
0
  6
CONTINUOUS
 62
          15
100
AcDbCircle
 10
6.630859375
 20
-15.280921936035
 30
0.0
 40
0.5
  0
CIRCLE
  5
4F3
100
AcDbEntity
  8
0
  6
CONTINUOUS
 62
          15
100
AcDbCircle
 10
8.880859375
 20
-15.280921936035
 30
0.0
 40
0.5
  0
CIRCLE
  5
4F4
100
AcDbEntity
  8
0
  6
CONTINUOUS
 62
          15
100
AcDbCircle
 10
11.130855560303
 20
-15.280921936035
 30
0.0
 40
0.5
  0
CIRCLE
  5
4F5
100
AcDbEntity
  8
0
  6
CONTINUOUS
 62
          15
100
AcDbCircle
 10
13.380855560303
 20
-15.280921936035
 30
0.0
 40
0.5
  0
TEXT
  5
4F6
100
AcDbEntity
  8
0
  6
CONTINUOUS
 62
          15
100
AcDbText
 10
6.259826660156
 20
-18.094961449504
 30
0.0
 40
0.819999992847
  1
1234
 41
2.743902462958
  7
ROMANT
100
AcDbText
  0
TEXT
  5
4F7
100
AcDbEntity
  8
0
  6
CONTINUOUS
 62
          15
100
AcDbText
 10
4.123664855957
 20
-12.808004751801
 30
0.0
 40
2.0
  1
TB4
 41
1.400000035763
  7
ROMANT
100
AcDbText
  0
TEXT
  5
4F8
100
AcDbEntity
  8
0
  6
CONTINUOUS
 62
          15
100
AcDbText
 10
3.399230957031
 20
-8.821928307414
 30
0.0
 40
0.819999992847
  1
TERMINATION
 41
1.024390239027
  7
ROMANT
100
AcDbText
  0
TEXT
  5
4F9
100
AcDbEntity
  8
0
  6
CONTINUOUS
 62
          15
100
AcDbText
 10
5.934761047363
 20
-10.053987786174
 30
0.0
 40
0.819999992847
  1
BOARD
 41
1.024390239027
  7
ROMANT
100
AcDbText
  0
TEXT
  5
4FA
100
AcDbEntity
  8
0
  6
CONTINUOUS
 62
          15
100
AcDbText
 10
2.858032226563
 20
-18.132440850139
 30
0.0
 40
0.819999992847
  1
C
 41
0.804878037811
  7
ROMANT
100
AcDbText
  0
LINE
  5
4FB
100
AcDbEntity
  8
0
  6
CONTINUOUS
 62
          15
100
AcDbLine
 10
1.130859375
 20
-18.493789672852
 30
0.0
 11
14.325992584229
 21
-18.493789672852
 31
0.0
  0
LINE
  5
4FC
100
AcDbEntity
  8
0
  6
CONTINUOUS
 62
          15
100
AcDbLine
 10
12.339412689209
 20
-18.493789672852
 30
0.0
 11
12.339412689209
 21
-16.780921936035
 31
0.0
  0
LINE
  5
4FD
100
AcDbEntity
  8
0
  6
CONTINUOUS
 62
          15
100
AcDbLine
 10
10.036792755127
 20
-18.493789672852
 30
0.0
 11
10.036792755127
 21
-16.780921936035
 31
0.0
  0
LINE
  5
4FE
100
AcDbEntity
  8
0
  6
CONTINUOUS
 62
          15
100
AcDbLine
 10
7.824478149414
 20
-18.493789672852
 30
0.0
 11
7.824478149414
 21
-16.780921936035
 31
0.0
  0
LINE
  5
4FF
100
AcDbEntity
  8
0
  6
CONTINUOUS
 62
          15
100
AcDbLine
 10
5.567001342773
 20
-18.493789672852
 30
0.0
 11
5.567001342773
 21
-16.780921936035
 31
0.0
  0
LINE
  5
500
100
AcDbEntity
  8
0
  6
CONTINUOUS
 62
          15
100
AcDbLine
 10
1.130859375
 20
-4.141868591309
 30
0.0
 11
14.380855560303
 21
-4.141868591309
 31
0.0
  0
LINE
  5
501
100
AcDbEntity
  8
0
  6
CONTINUOUS
 62
          15
100
AcDbLine
 10
1.130859375
 20
-7.141868591309
 30
0.0
 11
14.380855560303
 21
-7.141868591309
 31
0.0
  0
CIRCLE
  5
502
100
AcDbEntity
  8
0
  6
CONTINUOUS
 62
          15
100
AcDbCircle
 10
2.130859375
 20
-5.641868591309
 30
0.0
 40
0.5
  0
CIRCLE
  5
503
100
AcDbEntity
  8
0
  6
CONTINUOUS
 62
          15
100
AcDbCircle
 10
4.380859375
 20
-5.641868591309
 30
0.0
 40
0.5
  0
CIRCLE
  5
504
100
AcDbEntity
  8
0
  6
CONTINUOUS
 62
          15
100
AcDbCircle
 10
6.630859375
 20
-5.641868591309
 30
0.0
 40
0.5
  0
CIRCLE
  5
505
100
AcDbEntity
  8
0
  6
CONTINUOUS
 62
          15
100
AcDbCircle
 10
8.880859375
 20
-5.641868591309
 30
0.0
 40
0.5
  0
CIRCLE
  5
506
100
AcDbEntity
  8
0
  6
CONTINUOUS
 62
          15
100
AcDbCircle
 10
11.130855560303
 20
-5.641868591309
 30
0.0
 40
0.5
  0
CIRCLE
  5
507
100
AcDbEntity
  8
0
  6
CONTINUOUS
 62
          15
100
AcDbCircle
 10
13.380855560303
 20
-5.641868591309
 30
0.0
 40
0.5
  0
TEXT
  5
508
100
AcDbEntity
  8
0
  6
CONTINUOUS
 62
          15
100
AcDbText
 10
6.264770507813
 20
-3.669843956828
 30
0.0
 40
0.819999992847
  1
1234
 41
2.743902462958
  7
ROMANT
100
AcDbText
  0
TEXT
  5
509
100
AcDbEntity
  8
0
  6
CONTINUOUS
 62
          15
100
AcDbText
 10
2.767738342285
 20
-3.768923088908
 30
0.0
 40
0.819999992847
  1
C
 41
0.804878037811
  7
ROMANT
100
AcDbText
  0
LINE
  5
50A
100
AcDbEntity
  8
0
  6
CONTINUOUS
 62
          15
100
AcDbLine
 10
12.339412689209
 20
-4.141868591309
 30
0.0
 11
12.339412689209
 21
-2.571922302246
 31
0.0
  0
LINE
  5
50B
100
AcDbEntity
  8
0
  6
CONTINUOUS
 62
          15
100
AcDbLine
 10
10.036792755127
 20
-4.141868591309
 30
0.0
 11
10.036792755127
 21
-2.571922302246
 31
0.0
  0
LINE
  5
50C
100
AcDbEntity
  8
0
  6
CONTINUOUS
 62
          15
100
AcDbLine
 10
7.824478149414
 20
-4.141868591309
 30
0.0
 11
7.824478149414
 21
-2.571922302246
 31
0.0
  0
LINE
  5
50D
100
AcDbEntity
  8
0
  6
CONTINUOUS
 62
          15
100
AcDbLine
 10
5.567001342773
 20
-4.141868591309
 30
0.0
 11
5.567001342773
 21
-2.571922302246
 31
0.0
  0
LINE
  5
50E
100
AcDbEntity
  8
0
  6
CONTINUOUS
 62
          15
100
AcDbLine
 10
1.130859375
 20
-2.571922302246
 30
0.0
 11
14.325992584229
 21
-2.571922302246
 31
0.0
  0
TEXT
  5
50F
100
AcDbEntity
  8
0
  6
CONTINUOUS
 62
          15
100
AcDbText
 10
2.186149597168
 20
-2.045883774757
 30
0.0
 40
1.200000047684
  1
TO ALARM
 41
1.249999950329
  7
ROMANT
100
AcDbText
  0
TEXT
  5
510
100
AcDbEntity
  8
0
  6
CONTINUOUS
 62
          15
100
AcDbText
 10
2.023590087891
 20
-20.361099839211
 30
0.0
 40
1.200000047684
  1
TO PLANT
 41
1.249999950329
  7
ROMANT
100
AcDbText
  0
LINE
  5
511
100
AcDbEntity
  8
0
  6
CONTINUOUS
 62
          15
100
AcDbLine
 10
31.654537200928
 20
-26.187351226807
 30
0.0
 11
33.654537200928
 21
-26.187351226807
 31
0.0
  0
LINE
  5
512
100
AcDbEntity
  8
0
  6
CONTINUOUS
 62
          15
100
AcDbLine
 10
24.255222320557
 20
-26.187351226807
 30
0.0
 11
26.654529571533
 21
-26.187351226807
 31
0.0
  0
LINE
  5
513
100
AcDbEntity
  8
0
  6
CONTINUOUS
 62
          15
100
AcDbLine
 10
31.654537200928
 20
-26.187351226807
 30
0.0
 11
31.654537200928
 21
-24.187351226807
 31
0.0
  0
LINE
  5
514
100
AcDbEntity
  8
0
  6
CONTINUOUS
 62
          15
100
AcDbLine
 10
26.654529571533
 20
-26.187351226807
 30
0.0
 11
32.154537200928
 21
-24.187351226807
 31
0.0
  0
LINE
  5
515
100
AcDbEntity
  8
0
  6
CONTINUOUS
 62
          15
100
AcDbLine
 10
33.654537200928
 20
-26.187351226807
 30
0.0
 11
35.124782562256
 21
-26.187351226807
 31
0.0
  0
LINE
  5
516
100
AcDbEntity
  8
0
  6
CONTINUOUS
 62
          15
100
AcDbLine
 10
35.124782562256
 20
-46.187352180481
 30
0.0
 11
35.124782562256
 21
-26.187351226807
 31
0.0
  0
TEXT
  5
517
100
AcDbEntity
  8
0
  6
CONTINUOUS
 62
          15
100
AcDbText
 10
16.094318389893
 20
-21.074356622994
 30
0.0
 40
1.049999952316
  1
  HIGH
 41
1.238095305674
  7
ROMANT
100
AcDbText
  0
TEXT
  5
518
100
AcDbEntity
  8
0
  6
CONTINUOUS
 62
          15
100
AcDbText
 10
16.094318389893
 20
-22.754356570542
 30
0.0
 40
1.049999952316
  1
PRESSURE
 41
1.238095305674
  7
ROMANT
100
AcDbText
  0
TEXT
  5
519
100
AcDbEntity
  8
0
  6
CONTINUOUS
 62
          15
100
AcDbText
 10
27.400241851807
 20
-21.074356622994
 30
0.0
 40
1.049999952316
  1
  LOW
 41
1.238095305674
  7
ROMANT
100
AcDbText
  0
TEXT
  5
51A
100
AcDbEntity
  8
0
  6
CONTINUOUS
 62
          15
100
AcDbText
 10
27.400241851807
 20
-22.754356570542
 30
0.0
 40
1.049999952316
  1
PRESSURE
 41
1.238095305674
  7
ROMANT
100
AcDbText
  0
ENDBLK
  5
51B
100
AcDbEntity
  8
0
  6
BYBLOCK
 62
           0
100
AcDbBlockEnd
  0
BLOCK
  5
51C
100
AcDbEntity
  8
0
100
AcDbBlockBegin
  2
TB4C_8
 70
          64
 10
0.0
 20
0.0
 30
0.0
  3
TB4C_8
  1

  0
TEXT
  5
51D
100
AcDbEntity
  8
0
  6
CONTINUOUS
 62
          15
100
AcDbText
 10
3.874931335449
 20
-48.718865349889
 30
0.0
 40
1.350000023842
  1
CONTACTS & PRESSURE SWITCHES
 41
1.111111091488
  7
GOTHICI
100
AcDbText
  0
ENDBLK
  5
51E
100
AcDbEntity
  8
0
  6
BYBLOCK
 62
           0
100
AcDbBlockEnd
  0
BLOCK
  5
51F
100
AcDbEntity
  8
0
100
AcDbBlockBegin
  2
SUPPLY_9
 70
          64
 10
0.0
 20
0.0
 30
0.0
  3
SUPPLY_9
  1

  0
LINE
  5
520
100
AcDbEntity
  8
0
  6
CONTINUOUS
 62
          15
100
AcDbLine
 10
2.304016113281
 20
-7.19800567627
 30
0.0
 11
13.730758666992
 21
-7.19800567627
 31
0.0
  0
LINE
  5
521
100
AcDbEntity
  8
0
  6
CONTINUOUS
 62
          15
100
AcDbLine
 10
0.0
 20
-9.53736114502
 30
0.0
 11
13.730758666992
 21
-9.53736114502
 31
0.0
  0
LINE
  5
522
100
AcDbEntity
  8
0
  6
CONTINUOUS
 62
          15
100
AcDbLine
 10
-2.303955078125
 20
-11.87671661377
 30
0.0
 11
13.730758666992
 21
-11.87671661377
 31
0.0
  0
LINE
  5
523
100
AcDbEntity
  8
0
  6
CONTINUOUS
 62
          15
100
AcDbLine
 10
2.304016113281
 20
-7.19800567627
 30
0.0
 11
2.304016113281
 21
0.0
 31
0.0
  0
LINE
  5
524
100
AcDbEntity
  8
0
  6
CONTINUOUS
 62
          15
100
AcDbLine
 10
0.0
 20
-9.53736114502
 30
0.0
 11
0.0
 21
0.0
 31
0.0
  0
LINE
  5
525
100
AcDbEntity
  8
0
  6
CONTINUOUS
 62
          15
100
AcDbLine
 10
-2.303955078125
 20
-11.87671661377
 30
0.0
 11
-2.303955078125
 21
0.0
 31
0.0
  0
ENDBLK
  5
526
100
AcDbEntity
  8
0
  6
BYBLOCK
 62
           0
100
AcDbBlockEnd
  0
BLOCK
  5
527
100
AcDbEntity
  8
0
100
AcDbBlockBegin
  2
TERMINAL_10
 70
          64
 10
0.0
 20
0.0
 30
0.0
  3
TERMINAL_10
  1

  0
LINE
  5
528
100
AcDbEntity
  8
0
  6
CONTINUOUS
 62
          15
100
AcDbLine
 10
7.362899461002
 20
3.495969766098
 30
0.0
 11
-5.262509272816
 21
3.495969766098
 31
0.0
  0
LINE
  5
529
100
AcDbEntity
  8
0
  6
CONTINUOUS
 62
          15
100
AcDbLine
 10
-5.262509272816
 20
0.42415556126
 30
0.0
 11
7.362899461002
 21
0.42415556126
 31
0.0
  0
ENDBLK
  5
52A
100
AcDbEntity
  8
0
  6
BYBLOCK
 62
           0
100
AcDbBlockEnd
  0
BLOCK
  5
52B
100
AcDbEntity
  8
0
100
AcDbBlockBegin
  2
TERMINAL_11
 70
          64
 10
0.0
 20
0.0
 30
0.0
  3
TERMINAL_11
  1

  0
LINE
  5
52C
100
AcDbEntity
  8
0
  6
CONTINUOUS
 62
          15
100
AcDbLine
 10
4.954218680561
 20
3.495969766098
 30
0.0
 11
-7.494118587184
 21
3.495969766098
 31
0.0
  0
LINE
  5
52D
100
AcDbEntity
  8
0
  6
CONTINUOUS
 62
          15
100
AcDbLine
 10
-7.569665760373
 20
0.42415556126
 30
0.0
 11
4.954218680561
 21
0.42415556126
 31
0.0
  0
ENDBLK
  5
52E
100
AcDbEntity
  8
0
  6
BYBLOCK
 62
           0
100
AcDbBlockEnd
  0
BLOCK
  5
52F
100
AcDbEntity
  8
0
100
AcDbBlockBegin
  2
TERMINAL_12
 70
          64
 10
0.0
 20
0.0
 30
0.0
  3
TERMINAL_12
  1

  0
LINE
  5
530
100
AcDbEntity
  8
0
  6
CONTINUOUS
 62
          15
100
AcDbLine
 10
4.954212214972
 20
3.495969766098
 30
0.0
 11
-20.195079343383
 21
3.495969766098
 31
0.0
  0
ENDBLK
  5
531
100
AcDbEntity
  8
0
  6
BYBLOCK
 62
           0
100
AcDbBlockEnd
  0
BLOCK
  5
532
100
AcDbEntity
  8
0
100
AcDbBlockBegin
  2
TERMINAL_13
 70
          64
 10
0.0
 20
0.0
 30
0.0
  3
TERMINAL_13
  1

  0
LINE
  5
533
100
AcDbEntity
  8
0
  6
CONTINUOUS
 62
          15
100
AcDbLine
 10
7.362896228208
 20
3.495969766098
 30
0.0
 11
-5.262510889213
 21
3.495969766098
 31
0.0
  0
LINE
  5
534
100
AcDbEntity
  8
0
  6
CONTINUOUS
 62
          15
100
AcDbLine
 10
-5.262510889213
 20
0.42415556126
 30
0.0
 11
7.362896228208
 21
0.42415556126
 31
0.0
  0
ENDBLK
  5
535
100
AcDbEntity
  8
0
  6
BYBLOCK
 62
           0
100
AcDbBlockEnd
  0
BLOCK
  5
536
100
AcDbEntity
  8
0
100
AcDbBlockBegin
  2
TERMINAL_14
 70
          64
 10
0.0
 20
0.0
 30
0.0
  3
TERMINAL_14
  1

  0
LINE
  5
537
100
AcDbEntity
  8
0
  6
CONTINUOUS
 62
          15
100
AcDbLine
 10
4.954218680561
 20
3.495969766098
 30
0.0
 11
-7.49411535439
 21
3.495969766098
 31
0.0
  0
ENDBLK
  5
538
100
AcDbEntity
  8
0
  6
BYBLOCK
 62
           0
100
AcDbBlockEnd
  0
BLOCK
  5
539
100
AcDbEntity
  8
0
100
AcDbBlockBegin
  2
TB4C_15
 70
          64
 10
0.0
 20
0.0
 30
0.0
  3
TB4C_15
  1

  0
LINE
  5
53A
100
AcDbEntity
  8
0
  6
CONTINUOUS
 62
          15
100
AcDbLine
 10
0.130859375
 20
-21.06421661377
 30
0.0
 11
15.380859375
 21
-21.06421661377
 31
0.0
  0
LINE
  5
53B
100
AcDbEntity
  8
0
  6
CONTINUOUS
 62
          15
100
AcDbLine
 10
20.780166625977
 20
-36.187351226807
 30
0.0
 11
22.780166625977
 21
-36.187351226807
 31
0.0
  0
LINE
  5
53C
100
AcDbEntity
  8
0
  6
CONTINUOUS
 62
          15
100
AcDbLine
 10
13.380859375
 20
-36.187351226807
 30
0.0
 11
15.780166625977
 21
-36.187351226807
 31
0.0
  0
LINE
  5
53D
100
AcDbEntity
  8
0
  6
CONTINUOUS
 62
          15
100
AcDbLine
 10
8.880859375
 20
-36.187351226807
 30
0.0
 11
13.380859375
 21
-36.187351226807
 31
0.0
  0
LINE
  5
53E
100
AcDbEntity
  8
0
  6
CONTINUOUS
 62
          15
100
AcDbLine
 10
20.780166625977
 20
-41.187351226807
 30
0.0
 11
22.780166625977
 21
-41.187351226807
 31
0.0
  0
LINE
  5
53F
100
AcDbEntity
  8
0
  6
CONTINUOUS
 62
          15
100
AcDbLine
 10
13.380859375
 20
-41.187351226807
 30
0.0
 11
15.780166625977
 21
-41.187351226807
 31
0.0
  0
LINE
  5
540
100
AcDbEntity
  8
0
  6
CONTINUOUS
 62
          15
100
AcDbLine
 10
6.630859375
 20
-41.187351226807
 30
0.0
 11
13.380859375
 21
-41.187351226807
 31
0.0
  0
LINE
  5
541
100
AcDbEntity
  8
0
  6
CONTINUOUS
 62
          15
100
AcDbLine
 10
20.780166625977
 20
-36.187351226807
 30
0.0
 11
20.780166625977
 21
-34.187351226807
 31
0.0
  0
LINE
  5
542
100
AcDbEntity
  8
0
  6
CONTINUOUS
 62
          15
100
AcDbLine
 10
20.780166625977
 20
-41.187351226807
 30
0.0
 11
20.780166625977
 21
-39.187351226807
 31
0.0
  0
LINE
  5
543
100
AcDbEntity
  8
0
  6
CONTINUOUS
 62
          15
100
AcDbLine
 10
15.780166625977
 20
-41.187351226807
 30
0.0
 11
21.280166625977
 21
-39.187351226807
 31
0.0
  0
LINE
  5
544
100
AcDbEntity
  8
0
  6
CONTINUOUS
 62
          15
100
AcDbLine
 10
15.780166625977
 20
-36.187351226807
 30
0.0
 11
21.280166625977
 21
-34.187351226807
 31
0.0
  0
LINE
  5
545
100
AcDbEntity
  8
0
  6
CONTINUOUS
 62
          15
100
AcDbLine
 10
4.380859375
 20
-46.187352180481
 30
0.0
 11
35.124786376953
 21
-46.187352180481
 31
0.0
  0
LINE
  5
546
100
AcDbEntity
  8
0
  6
CONTINUOUS
 62
          15
100
AcDbLine
 10
0.130859375
 20
-21.06421661377
 30
0.0
 11
0.130859375
 21
-0.076000213623
 31
0.0
  0
LINE
  5
547
100
AcDbEntity
  8
0
  6
CONTINUOUS
 62
          15
100
AcDbLine
 10
15.380859375
 20
-21.06421661377
 30
0.0
 11
15.380859375
 21
-0.076000213623
 31
0.0
  0
LINE
  5
548
100
AcDbEntity
  8
0
  6
CONTINUOUS
 62
          15
100
AcDbLine
 10
1.130859375
 20
-21.06421661377
 30
0.0
 11
1.130859375
 21
-13.780921936035
 31
0.0
  0
LINE
  5
549
100
AcDbEntity
  8
0
  6
CONTINUOUS
 62
          15
100
AcDbLine
 10
8.880859375
 20
-36.187351226807
 30
0.0
 11
8.880859375
 21
-21.06421661377
 31
0.0
  0
LINE
  5
54A
100
AcDbEntity
  8
0
  6
CONTINUOUS
 62
          15
100
AcDbLine
 10
6.630859375
 20
-41.187351226807
 30
0.0
 11
6.630859375
 21
-21.06421661377
 31
0.0
  0
LINE
  5
54B
100
AcDbEntity
  8
0
  6
CONTINUOUS
 62
          15
100
AcDbLine
 10
4.380859375
 20
-46.187352180481
 30
0.0
 11
4.380859375
 21
-21.06421661377
 31
0.0
  0
LINE
  5
54C
100
AcDbEntity
  8
0
  6
CONTINUOUS
 62
          15
100
AcDbLine
 10
14.380859375
 20
-21.06421661377
 30
0.0
 11
14.380859375
 21
-13.780921936035
 31
0.0
  0
LINE
  5
54D
100
AcDbEntity
  8
0
  6
CONTINUOUS
 62
          15
100
AcDbLine
 10
22.780166625977
 20
-36.187351226807
 30
0.0
 11
35.124786376953
 21
-36.187351226807
 31
0.0
  0
LINE
  5
54E
100
AcDbEntity
  8
0
  6
CONTINUOUS
 62
          15
100
AcDbLine
 10
22.780166625977
 20
-41.187351226807
 30
0.0
 11
35.124786376953
 21
-41.187351226807
 31
0.0
  0
LINE
  5
54F
100
AcDbEntity
  8
0
  6
CONTINUOUS
 62
          15
100
AcDbLine
 10
0.130859375
 20
-0.076000213623
 30
0.0
 11
15.380859375
 21
-0.076000213623
 31
0.0
  0
LINE
  5
550
100
AcDbEntity
  8
0
  6
CONTINUOUS
 62
          15
100
AcDbLine
 10
1.130859375
 20
-7.141868591309
 30
0.0
 11
1.130859375
 21
-0.076000213623
 31
0.0
  0
LINE
  5
551
100
AcDbEntity
  8
0
  6
CONTINUOUS
 62
          15
100
AcDbLine
 10
14.380859375
 20
-7.141868591309
 30
0.0
 11
14.380859375
 21
-0.076000213623
 31
0.0
  0
LINE
  5
552
100
AcDbEntity
  8
0
  6
CONTINUOUS
 62
          15
100
AcDbLine
 10
1.130859375
 20
-13.780921936035
 30
0.0
 11
14.380859375
 21
-13.780921936035
 31
0.0
  0
LINE
  5
553
100
AcDbEntity
  8
0
  6
CONTINUOUS
 62
          15
100
AcDbLine
 10
1.130859375
 20
-16.780921936035
 30
0.0
 11
14.380859375
 21
-16.780921936035
 31
0.0
  0
CIRCLE
  5
554
100
AcDbEntity
  8
0
  6
CONTINUOUS
 62
          15
100
AcDbCircle
 10
2.130859375
 20
-15.280921936035
 30
0.0
 40
0.5
  0
CIRCLE
  5
555
100
AcDbEntity
  8
0
  6
CONTINUOUS
 62
          15
100
AcDbCircle
 10
4.380859375
 20
-15.280921936035
 30
0.0
 40
0.5
  0
CIRCLE
  5
556
100
AcDbEntity
  8
0
  6
CONTINUOUS
 62
          15
100
AcDbCircle
 10
6.630859375
 20
-15.280921936035
 30
0.0
 40
0.5
  0
CIRCLE
  5
557
100
AcDbEntity
  8
0
  6
CONTINUOUS
 62
          15
100
AcDbCircle
 10
8.880859375
 20
-15.280921936035
 30
0.0
 40
0.5
  0
CIRCLE
  5
558
100
AcDbEntity
  8
0
  6
CONTINUOUS
 62
          15
100
AcDbCircle
 10
11.130859375
 20
-15.280921936035
 30
0.0
 40
0.5
  0
CIRCLE
  5
559
100
AcDbEntity
  8
0
  6
CONTINUOUS
 62
          15
100
AcDbCircle
 10
13.380859375
 20
-15.280921936035
 30
0.0
 40
0.5
  0
TEXT
  5
55A
100
AcDbEntity
  8
0
  6
CONTINUOUS
 62
          15
100
AcDbText
 10
6.259826660156
 20
-18.094961449504
 30
0.0
 40
0.819999992847
  1
1234
 41
2.743902462958
  7
ROMANT
100
AcDbText
  0
TEXT
  5
55B
100
AcDbEntity
  8
0
  6
CONTINUOUS
 62
          15
100
AcDbText
 10
4.123672485352
 20
-12.808004751801
 30
0.0
 40
2.0
  1
TB4
 41
1.400000035763
  7
ROMANT
100
AcDbText
  0
TEXT
  5
55C
100
AcDbEntity
  8
0
  6
CONTINUOUS
 62
          15
100
AcDbText
 10
3.399230957031
 20
-8.821928307414
 30
0.0
 40
0.819999992847
  1
TERMINATION
 41
1.024390239027
  7
ROMANT
100
AcDbText
  0
TEXT
  5
55D
100
AcDbEntity
  8
0
  6
CONTINUOUS
 62
          15
100
AcDbText
 10
5.934768676758
 20
-10.053987786174
 30
0.0
 40
0.819999992847
  1
BOARD
 41
1.024390239027
  7
ROMANT
100
AcDbText
  0
TEXT
  5
55E
100
AcDbEntity
  8
0
  6
CONTINUOUS
 62
          15
100
AcDbText
 10
2.858032226563
 20
-18.132440850139
 30
0.0
 40
0.819999992847
  1
C
 41
0.804878037811
  7
ROMANT
100
AcDbText
  0
LINE
  5
55F
100
AcDbEntity
  8
0
  6
CONTINUOUS
 62
          15
100
AcDbLine
 10
1.130859375
 20
-18.493789672852
 30
0.0
 11
14.32600402832
 21
-18.493789672852
 31
0.0
  0
LINE
  5
560
100
AcDbEntity
  8
0
  6
CONTINUOUS
 62
          15
100
AcDbLine
 10
12.339416503906
 20
-18.493789672852
 30
0.0
 11
12.339416503906
 21
-16.780921936035
 31
0.0
  0
LINE
  5
561
100
AcDbEntity
  8
0
  6
CONTINUOUS
 62
          15
100
AcDbLine
 10
10.036804199219
 20
-18.493789672852
 30
0.0
 11
10.036804199219
 21
-16.780921936035
 31
0.0
  0
LINE
  5
562
100
AcDbEntity
  8
0
  6
CONTINUOUS
 62
          15
100
AcDbLine
 10
7.824478149414
 20
-18.493789672852
 30
0.0
 11
7.824478149414
 21
-16.780921936035
 31
0.0
  0
LINE
  5
563
100
AcDbEntity
  8
0
  6
CONTINUOUS
 62
          15
100
AcDbLine
 10
5.567001342773
 20
-18.493789672852
 30
0.0
 11
5.567001342773
 21
-16.780921936035
 31
0.0
  0
LINE
  5
564
100
AcDbEntity
  8
0
  6
CONTINUOUS
 62
          15
100
AcDbLine
 10
1.130859375
 20
-4.141868591309
 30
0.0
 11
14.380859375
 21
-4.141868591309
 31
0.0
  0
LINE
  5
565
100
AcDbEntity
  8
0
  6
CONTINUOUS
 62
          15
100
AcDbLine
 10
1.130859375
 20
-7.141868591309
 30
0.0
 11
14.380859375
 21
-7.141868591309
 31
0.0
  0
CIRCLE
  5
566
100
AcDbEntity
  8
0
  6
CONTINUOUS
 62
          15
100
AcDbCircle
 10
2.130859375
 20
-5.641868591309
 30
0.0
 40
0.5
  0
CIRCLE
  5
567
100
AcDbEntity
  8
0
  6
CONTINUOUS
 62
          15
100
AcDbCircle
 10
4.380859375
 20
-5.641868591309
 30
0.0
 40
0.5
  0
CIRCLE
  5
568
100
AcDbEntity
  8
0
  6
CONTINUOUS
 62
          15
100
AcDbCircle
 10
6.630859375
 20
-5.641868591309
 30
0.0
 40
0.5
  0
CIRCLE
  5
569
100
AcDbEntity
  8
0
  6
CONTINUOUS
 62
          15
100
AcDbCircle
 10
8.880859375
 20
-5.641868591309
 30
0.0
 40
0.5
  0
CIRCLE
  5
56A
100
AcDbEntity
  8
0
  6
CONTINUOUS
 62
          15
100
AcDbCircle
 10
11.130859375
 20
-5.641868591309
 30
0.0
 40
0.5
  0
CIRCLE
  5
56B
100
AcDbEntity
  8
0
  6
CONTINUOUS
 62
          15
100
AcDbCircle
 10
13.380859375
 20
-5.641868591309
 30
0.0
 40
0.5
  0
TEXT
  5
56C
100
AcDbEntity
  8
0
  6
CONTINUOUS
 62
          15
100
AcDbText
 10
6.264770507813
 20
-3.669843956828
 30
0.0
 40
0.819999992847
  1
1234
 41
2.743902462958
  7
ROMANT
100
AcDbText
  0
TEXT
  5
56D
100
AcDbEntity
  8
0
  6
CONTINUOUS
 62
          15
100
AcDbText
 10
2.76774597168
 20
-3.768923088908
 30
0.0
 40
0.819999992847
  1
C
 41
0.804878037811
  7
ROMANT
100
AcDbText
  0
LINE
  5
56E
100
AcDbEntity
  8
0
  6
CONTINUOUS
 62
          15
100
AcDbLine
 10
12.339416503906
 20
-4.141868591309
 30
0.0
 11
12.339416503906
 21
-2.571922302246
 31
0.0
  0
LINE
  5
56F
100
AcDbEntity
  8
0
  6
CONTINUOUS
 62
          15
100
AcDbLine
 10
10.036804199219
 20
-4.141868591309
 30
0.0
 11
10.036804199219
 21
-2.571922302246
 31
0.0
  0
LINE
  5
570
100
AcDbEntity
  8
0
  6
CONTINUOUS
 62
          15
100
AcDbLine
 10
7.824478149414
 20
-4.141868591309
 30
0.0
 11
7.824478149414
 21
-2.571922302246
 31
0.0
  0
LINE
  5
571
100
AcDbEntity
  8
0
  6
CONTINUOUS
 62
          15
100
AcDbLine
 10
5.567001342773
 20
-4.141868591309
 30
0.0
 11
5.567001342773
 21
-2.571922302246
 31
0.0
  0
LINE
  5
572
100
AcDbEntity
  8
0
  6
CONTINUOUS
 62
          15
100
AcDbLine
 10
1.130859375
 20
-2.571922302246
 30
0.0
 11
14.32600402832
 21
-2.571922302246
 31
0.0
  0
TEXT
  5
573
100
AcDbEntity
  8
0
  6
CONTINUOUS
 62
          15
100
AcDbText
 10
2.186157226563
 20
-2.045883774757
 30
0.0
 40
1.200000047684
  1
TO ALARM
 41
1.249999950329
  7
ROMANT
100
AcDbText
  0
TEXT
  5
574
100
AcDbEntity
  8
0
  6
CONTINUOUS
 62
          15
100
AcDbText
 10
2.023590087891
 20
-20.361099839211
 30
0.0
 40
1.200000047684
  1
TO PLANT
 41
1.249999950329
  7
ROMANT
100
AcDbText
  0
LINE
  5
575
100
AcDbEntity
  8
0
  6
CONTINUOUS
 62
          15
100
AcDbLine
 10
35.124786376953
 20
-46.187352180481
 30
0.0
 11
35.124786376953
 21
-31.441049575806
 31
0.0
  0
ENDBLK
  5
576
100
AcDbEntity
  8
0
  6
BYBLOCK
 62
           0
100
AcDbBlockEnd
  0
BLOCK
  5
577
100
AcDbEntity
  8
0
100
AcDbBlockBegin
  2
RES_16
 70
          64
 10
0.0
 20
0.0
 30
0.0
  3
RES_16
  1

  0
LINE
  5
578
100
AcDbEntity
  8
0
  6
CONTINUOUS
 62
          15
100
AcDbLine
 10
0.0
 20
-12.204154968262
 30
0.0
 11
0.0
 21
-11.032264709473
 31
0.0
  0
LINE
  5
579
100
AcDbEntity
  8
0
  6
CONTINUOUS
 62
          15
100
AcDbLine
 10
-1.0
 20
-10.532264709473
 30
0.0
 11
-1.0
 21
-5.713249206543
 31
0.0
  0
LINE
  5
57A
100
AcDbEntity
  8
0
  6
CONTINUOUS
 62
          15
100
AcDbLine
 10
1.0
 20
-10.532264709473
 30
0.0
 11
1.0
 21
-5.713249206543
 31
0.0
  0
LINE
  5
57B
100
AcDbEntity
  8
0
  6
CONTINUOUS
 62
          15
100
AcDbLine
 10
-0.5
 20
-5.213249206543
 30
0.0
 11
0.5
 21
-5.213249206543
 31
0.0
  0
LINE
  5
57C
100
AcDbEntity
  8
0
  6
CONTINUOUS
 62
          15
100
AcDbLine
 10
-0.5
 20
-11.032264709473
 30
0.0
 11
0.5
 21
-11.032264709473
 31
0.0
  0
LINE
  5
57D
100
AcDbEntity
  8
0
  6
CONTINUOUS
 62
          15
100
AcDbLine
 10
-8.579063415527
 20
-12.204154968262
 30
0.0
 11
0.0
 21
-12.204154968262
 31
0.0
  0
LINE
  5
57E
100
AcDbEntity
  8
0
  6
CONTINUOUS
 62
          15
100
AcDbLine
 10
-1.0
 20
-6.748825073242
 30
0.0
 11
1.0
 21
-6.748825073242
 31
0.0
  0
LINE
  5
57F
100
AcDbEntity
  8
0
  6
CONTINUOUS
 62
          15
100
AcDbLine
 10
-1.0
 20
-7.637840270996
 30
0.0
 11
1.0
 21
-7.637840270996
 31
0.0
  0
LINE
  5
580
100
AcDbEntity
  8
0
  6
CONTINUOUS
 62
          15
100
AcDbLine
 10
-1.0
 20
-8.486450195313
 30
0.0
 11
1.0
 21
-8.486450195313
 31
0.0
  0
LINE
  5
581
100
AcDbEntity
  8
0
  6
CONTINUOUS
 62
          15
100
AcDbLine
 10
-1.0
 20
-9.375465393066
 30
0.0
 11
1.0
 21
-9.375465393066
 31
0.0
  0
ARC
  5
582
100
AcDbEntity
  8
0
  6
CONTINUOUS
 62
          15
100
AcDbCircle
 10
-0.5
 20
-5.713249206543
 30
0.0
 40
0.5
100
AcDbArc
 50
90.000002504478
 51
180.000008651422
  0
ARC
  5
583
100
AcDbEntity
  8
0
  6
CONTINUOUS
 62
          15
100
AcDbCircle
 10
0.5
 20
-5.713249206543
 30
0.0
 40
0.5
100
AcDbArc
 50
0.0
 51
90.000002504478
  0
ARC
  5
584
100
AcDbEntity
  8
0
  6
CONTINUOUS
 62
          15
100
AcDbCircle
 10
0.5
 20
-10.532264709473
 30
0.0
 40
0.5
100
AcDbArc
 50
269.999997495521
 51
0.0
  0
ARC
  5
585
100
AcDbEntity
  8
0
  6
CONTINUOUS
 62
          15
100
AcDbCircle
 10
-0.5
 20
-10.532264709473
 30
0.0
 40
0.5
100
AcDbArc
 50
180.000008651422
 51
269.999997495521
  0
LINE
  5
586
100
AcDbEntity
  8
0
  6
CONTINUOUS
 62
          15
100
AcDbLine
 10
0.0
 20
-5.213249206543
 30
0.0
 11
0.0
 21
0.0
 31
0.0
  0
ENDBLK
  5
587
100
AcDbEntity
  8
0
  6
BYBLOCK
 62
           0
100
AcDbBlockEnd
  0
BLOCK
  5
588
100
AcDbEntity
  8
0
100
AcDbBlockBegin
  2
PLANT_17
 70
          64
 10
0.0
 20
0.0
 30
0.0
  3
PLANT_17
  1

  0
LINE
  5
589
100
AcDbEntity
  8
0
  6
CONTINUOUS
 62
          15
100
AcDbLine
 10
16.5
 20
2.625
 30
0.0
 11
23.650207519531
 21
2.625
 31
0.0
  0
LINE
  5
58A
100
AcDbEntity
  8
0
  6
CONTINUOUS
 62
          15
100
AcDbLine
 10
1.875
 20
2.625
 30
0.0
 11
14.625
 21
2.625
 31
0.0
  0
LINE
  5
58B
100
AcDbEntity
  8
0
  6
CONTINUOUS
 62
          15
100
AcDbLine
 10
-7.150207519531
 20
2.625
 30
0.0
 11
0.0
 21
2.625
 31
0.0
  0
LINE
  5
58C
100
AcDbEntity
  8
0
  6
CONTINUOUS
 62
          15
100
AcDbLine
 10
23.25
 20
2.625
 30
0.0
 11
23.25
 21
15.374999046326
 31
0.0
  0
LINE
  5
58D
100
AcDbEntity
  8
0
  6
CONTINUOUS
 62
          15
100
AcDbLine
 10
-5.25
 20
15.374999046326
 30
0.0
 11
-7.150207519531
 21
15.374999046326
 31
0.0
  0
LINE
  5
58E
100
AcDbEntity
  8
0
  6
CONTINUOUS
 62
          15
100
AcDbLine
 10
3.75
 20
15.374999046326
 30
0.0
 11
-0.75
 21
15.374999046326
 31
0.0
  0
LINE
  5
58F
100
AcDbEntity
  8
0
  6
CONTINUOUS
 62
          15
100
AcDbLine
 10
17.25
 20
15.374999046326
 30
0.0
 11
12.75
 21
15.374999046326
 31
0.0
  0
LINE
  5
590
100
AcDbEntity
  8
0
  6
CONTINUOUS
 62
          15
100
AcDbLine
 10
23.650207519531
 20
15.374999046326
 30
0.0
 11
21.75
 21
15.374999046326
 31
0.0
  0
LINE
  5
591
100
AcDbEntity
  8
0
  6
CONTINUOUS
 62
          15
100
AcDbLine
 10
-6.75
 20
15.374999046326
 30
0.0
 11
-6.75
 21
2.625
 31
0.0
  0
LINE
  5
592
100
AcDbEntity
  8
0
  6
CONTINUOUS
 62
          15
100
AcDbLine
 10
3.75
 20
15.374999046326
 30
0.0
 11
3.75
 21
26.812500953674
 31
0.0
  0
LINE
  5
593
100
AcDbEntity
  8
0
  6
CONTINUOUS
 62
          15
100
AcDbLine
 10
3.75
 20
14.999999046326
 30
0.0
 11
3.75
 21
15.374999046326
 31
0.0
  0
LINE
  5
594
100
AcDbEntity
  8
0
  6
CONTINUOUS
 62
          15
100
AcDbLine
 10
12.75
 20
14.999999046326
 30
0.0
 11
12.75
 21
26.812500953674
 31
0.0
  0
LINE
  5
595
100
AcDbEntity
  8
0
  6
CONTINUOUS
 62
          15
100
AcDbLine
 10
3.75
 20
14.999999046326
 30
0.0
 11
12.75
 21
14.999999046326
 31
0.0
  0
ARC
  5
596
100
AcDbEntity
  8
0
  6
CONTINUOUS
 62
          15
100
AcDbCircle
 10
-2.6015625
 20
8.999999046326
 30
0.0
 40
8.2734375
100
AcDbArc
 50
135.307905269407
 51
224.692094730593
  0
ARC
  5
597
100
AcDbEntity
  8
0
  6
CONTINUOUS
 62
          15
100
AcDbCircle
 10
19.1015625
 20
8.999999046326
 30
0.0
 40
8.2734375
100
AcDbArc
 50
315.30790026045
 51
44.692099739549
  0
ARC
  5
598
100
AcDbEntity
  8
0
  6
CONTINUOUS
 62
          15
100
AcDbCircle
 10
-7.150207519531
 20
4.5
 30
0.0
 40
1.875
100
AcDbArc
 50
224.692094730593
 51
269.999997495521
  0
ARC
  5
599
100
AcDbEntity
  8
0
  6
CONTINUOUS
 62
          15
100
AcDbCircle
 10
-7.150207519531
 20
13.499999046326
 30
0.0
 40
1.875
100
AcDbArc
 50
90.000002504478
 51
135.307905269407
  0
ARC
  5
59A
100
AcDbEntity
  8
0
  6
CONTINUOUS
 62
          15
100
AcDbCircle
 10
23.650207519531
 20
13.499999046326
 30
0.0
 40
1.875
100
AcDbArc
 50
44.692099739549
 51
90.000002504478
  0
ARC
  5
59B
100
AcDbEntity
  8
0
  6
CONTINUOUS
 62
          15
100
AcDbCircle
 10
23.650207519531
 20
4.5
 30
0.0
 40
1.875
100
AcDbArc
 50
269.999997495521
 51
315.30790026045
  0
LINE
  5
59C
100
AcDbEntity
  8
0
  6
CONTINUOUS
 62
          15
100
AcDbLine
 10
1.875
 20
0.0
 30
0.0
 11
1.875
 21
3.375
 31
0.0
  0
LINE
  5
59D
100
AcDbEntity
  8
0
  6
CONTINUOUS
 62
          15
100
AcDbLine
 10
14.625
 20
0.0
 30
0.0
 11
14.625
 21
3.375
 31
0.0
  0
LINE
  5
59E
100
AcDbEntity
  8
0
  6
CONTINUOUS
 62
          15
100
AcDbLine
 10
0.0
 20
0.0
 30
0.0
 11
0.0
 21
3.375
 31
0.0
  0
LINE
  5
59F
100
AcDbEntity
  8
0
  6
CONTINUOUS
 62
          15
100
AcDbLine
 10
16.5
 20
0.0
 30
0.0
 11
16.5
 21
3.375
 31
0.0
  0
LINE
  5
5A0
100
AcDbEntity
  8
0
  6
CONTINUOUS
 62
          15
100
AcDbLine
 10
14.625
 20
0.0
 30
0.0
 11
16.5
 21
0.0
 31
0.0
  0
LINE
  5
5A1
100
AcDbEntity
  8
0
  6
CONTINUOUS
 62
          15
100
AcDbLine
 10
0.0
 20
0.0
 30
0.0
 11
1.875
 21
0.0
 31
0.0
  0
LINE
  5
5A2
100
AcDbEntity
  8
0
  6
CONTINUOUS
 62
          15
100
AcDbLine
 10
14.625
 20
3.375
 30
0.0
 11
16.5
 21
3.375
 31
0.0
  0
CIRCLE
  5
5A3
100
AcDbEntity
  8
0
  6
CONTINUOUS
 62
          15
100
AcDbCircle
 10
-3.0
 20
19.874999046326
 30
0.0
 40
1.3125
  0
CIRCLE
  5
5A4
100
AcDbEntity
  8
0
  6
CONTINUOUS
 62
          15
100
AcDbCircle
 10
-3.0
 20
19.874999046326
 30
0.0
 40
0.5625
  0
ARC
  5
5A5
100
AcDbEntity
  8
0
  6
CONTINUOUS
 62
          15
100
AcDbCircle
 10
-3.0
 20
19.874999046326
 30
0.0
 40
2.25
100
AcDbArc
 50
199.471225069349
 51
336.443536448913
  0
ARC
  5
5A6
100
AcDbEntity
  8
0
  6
CONTINUOUS
 62
          15
100
AcDbCircle
 10
-3.0
 20
19.874999046326
 30
0.0
 40
2.25
100
AcDbArc
 50
23.556463551086
 51
146.442684560036
  0
LINE
  5
5A7
100
AcDbEntity
  8
0
  6
CONTINUOUS
 62
          15
100
AcDbLine
 10
-0.9375
 20
17.624999046326
 30
0.0
 11
-0.9375
 21
22.125000953674
 31
0.0
  0
LINE
  5
5A8
100
AcDbEntity
  8
0
  6
CONTINUOUS
 62
          15
100
AcDbLine
 10
1.6875
 20
17.624999046326
 30
0.0
 11
1.6875
 21
22.125000953674
 31
0.0
  0
LINE
  5
5A9
100
AcDbEntity
  8
0
  6
CONTINUOUS
 62
          15
100
AcDbLine
 10
-4.875
 20
19.124999046326
 30
0.0
 11
-4.875
 21
21.375000953674
 31
0.0
  0
LINE
  5
5AA
100
AcDbEntity
  8
0
  6
CONTINUOUS
 62
          15
100
AcDbLine
 10
-6.1875
 20
19.124999046326
 30
0.0
 11
-6.1875
 21
21.375000953674
 31
0.0
  0
LINE
  5
5AB
100
AcDbEntity
  8
0
  6
CONTINUOUS
 62
          15
100
AcDbLine
 10
-0.9375
 20
22.125000953674
 30
0.0
 11
1.6875
 21
22.125000953674
 31
0.0
  0
LINE
  5
5AC
100
AcDbEntity
  8
0
  6
CONTINUOUS
 62
          15
100
AcDbLine
 10
-0.9375
 20
17.624999046326
 30
0.0
 11
1.6875
 21
17.624999046326
 31
0.0
  0
LINE
  5
5AD
100
AcDbEntity
  8
0
  6
CONTINUOUS
 62
          15
100
AcDbLine
 10
-6.1875
 20
19.124999046326
 30
0.0
 11
-4.875
 21
19.124999046326
 31
0.0
  0
LINE
  5
5AE
100
AcDbEntity
  8
0
  6
CONTINUOUS
 62
          15
100
AcDbLine
 10
-6.1875
 20
21.375000953674
 30
0.0
 11
-4.875
 21
21.375000953674
 31
0.0
  0
LINE
  5
5AF
100
AcDbEntity
  8
0
  6
CONTINUOUS
 62
          15
100
AcDbLine
 10
-4.875
 20
17.357432365417
 30
0.0
 11
-1.125
 21
17.357432365417
 31
0.0
  0
LINE
  5
5B0
100
AcDbEntity
  8
0
  6
CONTINUOUS
 62
          15
100
AcDbLine
 10
-5.25
 20
16.864609718323
 30
0.0
 11
-0.75
 21
16.864609718323
 31
0.0
  0
LINE
  5
5B1
100
AcDbEntity
  8
0
  6
CONTINUOUS
 62
          15
100
AcDbLine
 10
-4.875
 20
16.864609718323
 30
0.0
 11
-4.875
 21
17.357432365417
 31
0.0
  0
LINE
  5
5B2
100
AcDbEntity
  8
0
  6
CONTINUOUS
 62
          15
100
AcDbLine
 10
-1.125
 20
16.864609718323
 30
0.0
 11
-1.125
 21
17.357432365417
 31
0.0
  0
LINE
  5
5B3
100
AcDbEntity
  8
0
  6
CONTINUOUS
 62
          15
100
AcDbLine
 10
-5.25
 20
13.864609718323
 30
0.0
 11
-5.25
 21
16.864609718323
 31
0.0
  0
LINE
  5
5B4
100
AcDbEntity
  8
0
  6
CONTINUOUS
 62
          15
100
AcDbLine
 10
-0.75
 20
13.864609718323
 30
0.0
 11
-0.75
 21
16.864609718323
 31
0.0
  0
LINE
  5
5B5
100
AcDbEntity
  8
0
  6
CONTINUOUS
 62
          15
100
AcDbLine
 10
-1.488067626953
 20
13.864609718323
 30
0.0
 11
-0.75
 21
13.864609718323
 31
0.0
  0
LINE
  5
5B6
100
AcDbEntity
  8
0
  6
CONTINUOUS
 62
          15
100
AcDbLine
 10
-5.25
 20
13.864609718323
 30
0.0
 11
-4.511932373047
 21
13.864609718323
 31
0.0
  0
ARC
  5
5B7
100
AcDbEntity
  8
0
  6
CONTINUOUS
 62
          15
100
AcDbCircle
 10
-3.0
 20
11.999999046326
 30
0.0
 40
2.400565862656
100
AcDbArc
 50
50.962855435403
 51
129.037149573553
  0
CIRCLE
  5
5B8
100
AcDbEntity
  8
0
  6
CONTINUOUS
 62
          15
100
AcDbCircle
 10
19.5
 20
19.874999046326
 30
0.0
 40
1.3125
  0
CIRCLE
  5
5B9
100
AcDbEntity
  8
0
  6
CONTINUOUS
 62
          15
100
AcDbCircle
 10
19.5
 20
19.874999046326
 30
0.0
 40
0.5625
  0
ARC
  5
5BA
100
AcDbEntity
  8
0
  6
CONTINUOUS
 62
          15
100
AcDbCircle
 10
19.5
 20
19.874999046326
 30
0.0
 40
2.25
100
AcDbArc
 50
199.471225069349
 51
336.443536448913
  0
ARC
  5
5BB
100
AcDbEntity
  8
0
  6
CONTINUOUS
 62
          15
100
AcDbCircle
 10
19.5
 20
19.874999046326
 30
0.0
 40
2.25
100
AcDbArc
 50
23.556463551086
 51
146.442684560036
  0
LINE
  5
5BC
100
AcDbEntity
  8
0
  6
CONTINUOUS
 62
          15
100
AcDbLine
 10
21.5625
 20
17.624999046326
 30
0.0
 11
21.5625
 21
22.125000953674
 31
0.0
  0
LINE
  5
5BD
100
AcDbEntity
  8
0
  6
CONTINUOUS
 62
          15
100
AcDbLine
 10
24.1875
 20
17.624999046326
 30
0.0
 11
24.1875
 21
22.125000953674
 31
0.0
  0
LINE
  5
5BE
100
AcDbEntity
  8
0
  6
CONTINUOUS
 62
          15
100
AcDbLine
 10
17.625
 20
19.124999046326
 30
0.0
 11
17.625
 21
21.375000953674
 31
0.0
  0
LINE
  5
5BF
100
AcDbEntity
  8
0
  6
CONTINUOUS
 62
          15
100
AcDbLine
 10
16.3125
 20
19.124999046326
 30
0.0
 11
16.3125
 21
21.375000953674
 31
0.0
  0
LINE
  5
5C0
100
AcDbEntity
  8
0
  6
CONTINUOUS
 62
          15
100
AcDbLine
 10
21.5625
 20
22.125000953674
 30
0.0
 11
24.1875
 21
22.125000953674
 31
0.0
  0
LINE
  5
5C1
100
AcDbEntity
  8
0
  6
CONTINUOUS
 62
          15
100
AcDbLine
 10
21.5625
 20
17.624999046326
 30
0.0
 11
24.1875
 21
17.624999046326
 31
0.0
  0
LINE
  5
5C2
100
AcDbEntity
  8
0
  6
CONTINUOUS
 62
          15
100
AcDbLine
 10
16.3125
 20
19.124999046326
 30
0.0
 11
17.625
 21
19.124999046326
 31
0.0
  0
LINE
  5
5C3
100
AcDbEntity
  8
0
  6
CONTINUOUS
 62
          15
100
AcDbLine
 10
16.3125
 20
21.375000953674
 30
0.0
 11
17.625
 21
21.375000953674
 31
0.0
  0
LINE
  5
5C4
100
AcDbEntity
  8
0
  6
CONTINUOUS
 62
          15
100
AcDbLine
 10
17.625
 20
17.357432365417
 30
0.0
 11
21.375
 21
17.357432365417
 31
0.0
  0
LINE
  5
5C5
100
AcDbEntity
  8
0
  6
CONTINUOUS
 62
          15
100
AcDbLine
 10
17.25
 20
16.864609718323
 30
0.0
 11
21.75
 21
16.864609718323
 31
0.0
  0
LINE
  5
5C6
100
AcDbEntity
  8
0
  6
CONTINUOUS
 62
          15
100
AcDbLine
 10
17.625
 20
16.864609718323
 30
0.0
 11
17.625
 21
17.357432365417
 31
0.0
  0
LINE
  5
5C7
100
AcDbEntity
  8
0
  6
CONTINUOUS
 62
          15
100
AcDbLine
 10
21.375
 20
16.864609718323
 30
0.0
 11
21.375
 21
17.357432365417
 31
0.0
  0
LINE
  5
5C8
100
AcDbEntity
  8
0
  6
CONTINUOUS
 62
          15
100
AcDbLine
 10
17.25
 20
13.864609718323
 30
0.0
 11
17.25
 21
16.864609718323
 31
0.0
  0
LINE
  5
5C9
100
AcDbEntity
  8
0
  6
CONTINUOUS
 62
          15
100
AcDbLine
 10
21.75
 20
13.864609718323
 30
0.0
 11
21.75
 21
16.864609718323
 31
0.0
  0
LINE
  5
5CA
100
AcDbEntity
  8
0
  6
CONTINUOUS
 62
          15
100
AcDbLine
 10
21.011901855469
 20
13.864609718323
 30
0.0
 11
21.75
 21
13.864609718323
 31
0.0
  0
LINE
  5
5CB
100
AcDbEntity
  8
0
  6
CONTINUOUS
 62
          15
100
AcDbLine
 10
17.25
 20
13.864609718323
 30
0.0
 11
17.988037109375
 21
13.864609718323
 31
0.0
  0
ARC
  5
5CC
100
AcDbEntity
  8
0
  6
CONTINUOUS
 62
          15
100
AcDbCircle
 10
19.5
 20
11.999999046326
 30
0.0
 40
2.400565862656
100
AcDbArc
 50
50.962855435403
 51
129.037149573553
  0
LINE
  5
5CD
100
AcDbEntity
  8
0
  6
CONTINUOUS
 62
          15
100
AcDbLine
 10
0.0
 20
3.375
 30
0.0
 11
1.875
 21
3.375
 31
0.0
  0
LINE
  5
5CE
100
AcDbEntity
  8
0
  6
CONTINUOUS
 62
          15
100
AcDbLine
 10
4.087493896484
 20
22.537499427795
 30
0.0
 11
4.087493896484
 21
26.474999427795
 31
0.0
  0
LINE
  5
5CF
100
AcDbEntity
  8
0
  6
CONTINUOUS
 62
          15
100
AcDbLine
 10
4.087493896484
 20
15.337500572205
 30
0.0
 11
4.087493896484
 21
22.199997901917
 31
0.0
  0
LINE
  5
5D0
100
AcDbEntity
  8
0
  6
CONTINUOUS
 62
          15
100
AcDbLine
 10
12.412475585938
 20
22.537499427795
 30
0.0
 11
12.412475585938
 21
26.474999427795
 31
0.0
  0
LINE
  5
5D1
100
AcDbEntity
  8
0
  6
CONTINUOUS
 62
          15
100
AcDbLine
 10
12.412475585938
 20
15.337500572205
 30
0.0
 11
12.412475585938
 21
22.199997901917
 31
0.0
  0
LINE
  5
5D2
100
AcDbEntity
  8
0
  6
CONTINUOUS
 62
          15
100
AcDbLine
 10
3.75
 20
26.812500953674
 30
0.0
 11
12.75
 21
26.812500953674
 31
0.0
  0
LINE
  5
5D3
100
AcDbEntity
  8
0
  6
CONTINUOUS
 62
          15
100
AcDbLine
 10
4.087493896484
 20
26.474999427795
 30
0.0
 11
12.412475585938
 21
26.474999427795
 31
0.0
  0
LINE
  5
5D4
100
AcDbEntity
  8
0
  6
CONTINUOUS
 62
          15
100
AcDbLine
 10
4.087493896484
 20
22.537499427795
 30
0.0
 11
12.412475585938
 21
22.537499427795
 31
0.0
  0
LINE
  5
5D5
100
AcDbEntity
  8
0
  6
CONTINUOUS
 62
          15
100
AcDbLine
 10
9.224975585938
 20
22.199997901917
 30
0.0
 11
12.412475585938
 21
22.199997901917
 31
0.0
  0
LINE
  5
5D6
100
AcDbEntity
  8
0
  6
CONTINUOUS
 62
          15
100
AcDbLine
 10
4.087493896484
 20
22.199997901917
 30
0.0
 11
7.274993896484
 21
22.199997901917
 31
0.0
  0
LINE
  5
5D7
100
AcDbEntity
  8
0
  6
CONTINUOUS
 62
          15
100
AcDbLine
 10
9.224975585938
 20
15.337500572205
 30
0.0
 11
12.412475585938
 21
15.337500572205
 31
0.0
  0
LINE
  5
5D8
100
AcDbEntity
  8
0
  6
CONTINUOUS
 62
          15
100
AcDbLine
 10
4.087493896484
 20
15.337500572205
 30
0.0
 11
7.274993896484
 21
15.337500572205
 31
0.0
  0
LINE
  5
5D9
100
AcDbEntity
  8
0
  6
CONTINUOUS
 62
          15
100
AcDbLine
 10
7.274993896484
 20
15.337500572205
 30
0.0
 11
7.274993896484
 21
22.199997901917
 31
0.0
  0
LINE
  5
5DA
100
AcDbEntity
  8
0
  6
CONTINUOUS
 62
          15
100
AcDbLine
 10
9.224975585938
 20
15.337500572205
 30
0.0
 11
9.224975585938
 21
22.199997901917
 31
0.0
  0
CIRCLE
  5
5DB
100
AcDbEntity
  8
0
  6
CONTINUOUS
 62
          15
100
AcDbCircle
 10
8.25
 20
20.121876716614
 30
0.0
 40
0.75
  0
CIRCLE
  5
5DC
100
AcDbEntity
  8
0
  6
CONTINUOUS
 62
          15
100
AcDbCircle
 10
8.25
 20
18.021216392517
 30
0.0
 40
0.75
  0
ENDBLK
  5
5DD
100
AcDbEntity
  8
0
  6
BYBLOCK
 62
           0
100
AcDbBlockEnd
  0
BLOCK
  5
5DE
100
AcDbEntity
  8
0
100
AcDbBlockBegin
  2
MAN_18
 70
          64
 10
0.0
 20
0.0
 30
0.0
  3
MAN_18
  1

  0
LINE
  5
5DF
100
AcDbEntity
  8
0
  6
CONTINUOUS
 62
          15
100
AcDbLine
 10
26.690672767533
 20
0.101403391305
 30
0.0
 11
26.690672767533
 21
12.035403568133
 31
0.0
  0
LINE
  5
5E0
100
AcDbEntity
  8
0
  6
CONTINUOUS
 62
          15
100
AcDbLine
 10
28.985696276597
 20
0.101403391305
 30
0.0
 11
28.985696276597
 21
12.035403568133
 31
0.0
  0
LINE
  5
5E1
100
AcDbEntity
  8
0
  6
CONTINUOUS
 62
          15
100
AcDbLine
 10
26.920215808542
 20
-0.128096734361
 30
0.0
 11
28.756204098217
 21
-0.128096734361
 31
0.0
  0
LINE
  5
5E2
100
AcDbEntity
  8
0
  6
CONTINUOUS
 62
          15
100
AcDbLine
 10
27.608692343684
 20
13.159718785297
 30
0.0
 11
27.608692343684
 21
13.641902858341
 31
0.0
  0
LINE
  5
5E3
100
AcDbEntity
  8
0
  6
CONTINUOUS
 62
          15
100
AcDbLine
 10
28.067676700446
 20
13.159718785297
 30
0.0
 11
28.067676700446
 21
13.641902858341
 31
0.0
  0
LINE
  5
5E4
100
AcDbEntity
  8
0
  6
CONTINUOUS
 62
          15
100
AcDbLine
 10
27.608692343684
 20
13.641902858341
 30
0.0
 11
28.067676700446
 21
13.641902858341
 31
0.0
  0
ARC
  5
5E5
100
AcDbEntity
  8
0
  6
CONTINUOUS
 62
          15
100
AcDbCircle
 10
27.838184522065
 20
12.035403568133
 30
0.0
 40
1.147500032286
100
AcDbArc
 50
101.536956993817
 51
180.000008651422
  0
ARC
  5
5E6
100
AcDbEntity
  8
0
  6
CONTINUOUS
 62
          15
100
AcDbCircle
 10
27.838184522065
 20
12.035403568133
 30
0.0
 40
1.147500032286
100
AcDbArc
 50
0.0
 51
78.46304118495
  0
LINE
  5
5E7
100
AcDbEntity
  8
0
  6
CONTINUOUS
 62
          15
100
AcDbLine
 10
27.723438432875
 20
13.641902858341
 30
0.0
 11
27.723438432875
 21
14.100903109674
 31
0.0
  0
LINE
  5
5E8
100
AcDbEntity
  8
0
  6
CONTINUOUS
 62
          15
100
AcDbLine
 10
27.952930611256
 20
13.641902858341
 30
0.0
 11
27.952930611256
 21
14.100903109674
 31
0.0
  0
LINE
  5
5E9
100
AcDbEntity
  8
0
  6
CONTINUOUS
 62
          15
100
AcDbLine
 10
27.723438432875
 20
14.100903109674
 30
0.0
 11
27.952930611256
 21
14.100903109674
 31
0.0
  0
LINE
  5
5EA
100
AcDbEntity
  8
0
  6
CONTINUOUS
 62
          15
100
AcDbLine
 10
28.985696276597
 20
15.936900936091
 30
0.0
 11
27.457833788481
 21
16.05149284794
 31
0.0
  0
LINE
  5
5EB
100
AcDbEntity
  8
0
  6
CONTINUOUS
 62
          15
100
AcDbLine
 10
28.474272550175
 20
15.860187377128
 30
0.0
 11
26.690672767533
 21
15.993954499803
 31
0.0
  0
LINE
  5
5EC
100
AcDbEntity
  8
0
  6
CONTINUOUS
 62
          15
100
AcDbLine
 10
28.985696276597
 20
16.281153508776
 30
0.0
 11
26.690672767533
 21
16.109028017162
 31
0.0
  0
LINE
  5
5ED
100
AcDbEntity
  8
0
  6
CONTINUOUS
 62
          15
100
AcDbLine
 10
28.985696276597
 20
16.166079991417
 30
0.0
 11
26.699268551697
 21
15.994598229941
 31
0.0
  0
LINE
  5
5EE
100
AcDbEntity
  8
0
  6
CONTINUOUS
 62
          15
100
AcDbLine
 10
28.985696276597
 20
16.281153508776
 30
0.0
 11
27.457833788481
 21
16.395740652254
 31
0.0
  0
LINE
  5
5EF
100
AcDbEntity
  8
0
  6
CONTINUOUS
 62
          15
100
AcDbLine
 10
28.218535255649
 20
16.223618339554
 30
0.0
 11
26.690672767533
 21
16.338205483031
 31
0.0
  0
LINE
  5
5F0
100
AcDbEntity
  8
0
  6
CONTINUOUS
 62
          15
100
AcDbLine
 10
28.985696276597
 20
16.625404492005
 30
0.0
 11
26.690672767533
 21
16.453275821476
 31
0.0
  0
LINE
  5
5F1
100
AcDbEntity
  8
0
  6
CONTINUOUS
 62
          15
100
AcDbLine
 10
28.985696276597
 20
16.510330974645
 30
0.0
 11
26.690672767533
 21
16.338205483031
 31
0.0
  0
LINE
  5
5F2
100
AcDbEntity
  8
0
  6
CONTINUOUS
 62
          15
100
AcDbLine
 10
28.985696276597
 20
16.625404492005
 30
0.0
 11
27.838184522065
 21
16.797526804704
 31
0.0
  0
LINE
  5
5F3
100
AcDbEntity
  8
0
  6
CONTINUOUS
 62
          15
100
AcDbLine
 10
28.470000089407
 20
16.586723463268
 30
0.0
 11
27.838184522065
 21
16.681493255238
 31
0.0
  0
LINE
  5
5F4
100
AcDbEntity
  8
0
  6
CONTINUOUS
 62
          15
100
AcDbLine
 10
28.985696276597
 20
15.936900936091
 30
0.0
 11
27.838184522065
 21
15.764777033934
 31
0.0
  0
LINE
  5
5F5
100
AcDbEntity
  8
0
  6
CONTINUOUS
 62
          15
100
AcDbLine
 10
28.985696276597
 20
15.820868976082
 30
0.0
 11
27.838184522065
 21
15.648743484468
 31
0.0
  0
ARC
  5
5F6
100
AcDbEntity
  8
0
  6
CONTINUOUS
 62
          15
100
AcDbCircle
 10
26.690672767533
 20
16.395740652254
 30
0.0
 40
0.057374994164
100
AcDbArc
 50
94.289156397571
 51
274.289151388614
  0
ARC
  5
5F7
100
AcDbEntity
  8
0
  6
CONTINUOUS
 62
          15
100
AcDbCircle
 10
26.690672767533
 20
16.05149284794
 30
0.0
 40
0.057374994164
100
AcDbArc
 50
94.289156397571
 51
265.710870923185
  0
ARC
  5
5F8
100
AcDbEntity
  8
0
  6
CONTINUOUS
 62
          15
100
AcDbCircle
 10
28.985696276597
 20
15.878887340272
 30
0.0
 40
0.057374994164
100
AcDbArc
 50
278.530767165084
 51
98.530765343851
  0
ARC
  5
5F9
100
AcDbEntity
  8
0
  6
CONTINUOUS
 62
          15
100
AcDbCircle
 10
28.985696276597
 20
16.223618339554
 30
0.0
 40
0.057374994164
100
AcDbArc
 50
274.289137728236
 51
94.289156397571
  0
ARC
  5
5FA
100
AcDbEntity
  8
0
  6
CONTINUOUS
 62
          15
100
AcDbCircle
 10
28.985696276597
 20
16.567866143868
 30
0.0
 40
0.057374994164
100
AcDbArc
 50
274.289151388614
 51
94.289156397571
  0
ARC
  5
5FB
100
AcDbEntity
  8
0
  6
CONTINUOUS
 62
          15
100
AcDbCircle
 10
27.838184522065
 20
16.739514798343
 30
0.0
 40
0.057374994164
100
AcDbArc
 50
81.469232834915
 51
261.469166354256
  0
ARC
  5
5FC
100
AcDbEntity
  8
0
  6
CONTINUOUS
 62
          15
100
AcDbCircle
 10
27.838184522065
 20
15.706760259201
 30
0.0
 40
0.057374994164
100
AcDbArc
 50
98.530765343851
 51
278.530767165084
  0
LINE
  5
5FD
100
AcDbEntity
  8
0
  6
CONTINUOUS
 62
          15
100
AcDbLine
 10
27.78081147747
 20
14.100903109674
 30
0.0
 11
27.78081147747
 21
15.706760259201
 31
0.0
  0
LINE
  5
5FE
100
AcDbEntity
  8
0
  6
CONTINUOUS
 62
          15
100
AcDbLine
 10
27.89555756666
 20
14.100903109674
 30
0.0
 11
27.89555756666
 21
15.657348805374
 31
0.0
  0
ARC
  5
5FF
100
AcDbEntity
  8
0
  6
CONTINUOUS
 62
          15
100
AcDbCircle
 10
26.920215808542
 20
0.101403391305
 30
0.0
 40
0.229499976655
100
AcDbArc
 50
180.000008651422
 51
269.999997495521
  0
ARC
  5
600
100
AcDbEntity
  8
0
  6
CONTINUOUS
 62
          15
100
AcDbCircle
 10
28.756204098217
 20
0.101403391305
 30
0.0
 40
0.229499976655
100
AcDbArc
 50
269.999997495521
 51
0.0
  0
ARC
  5
601
100
AcDbEntity
  8
0
  6
CONTINUOUS
 62
          15
100
AcDbCircle
 10
24.854684477858
 20
14.330401645883
 30
0.0
 40
0.229499976655
100
AcDbArc
 50
269.999997495521
 51
0.0
  0
LINE
  5
602
100
AcDbEntity
  8
0
  6
CONTINUOUS
 62
          15
100
AcDbLine
 10
24.280954031906
 20
12.494402230008
 30
0.0
 11
24.280954031906
 21
13.641902858341
 31
0.0
  0
LINE
  5
603
100
AcDbEntity
  8
0
  6
CONTINUOUS
 62
          15
100
AcDbLine
 10
24.453073165692
 20
12.494402230008
 30
0.0
 11
24.453073165692
 21
13.641902858341
 31
0.0
  0
LINE
  5
604
100
AcDbEntity
  8
0
  6
CONTINUOUS
 62
          15
100
AcDbLine
 10
25.600584920224
 20
11.346903191133
 30
0.0
 11
26.690672767533
 21
11.346903191133
 31
0.0
  0
LINE
  5
605
100
AcDbEntity
  8
0
  6
CONTINUOUS
 62
          15
100
AcDbLine
 10
25.600584920224
 20
11.174777699519
 30
0.0
 11
26.690672767533
 21
11.174777699519
 31
0.0
  0
ARC
  5
606
100
AcDbEntity
  8
0
  6
CONTINUOUS
 62
          15
100
AcDbCircle
 10
25.600584920224
 20
12.494402230008
 30
0.0
 40
1.147500032286
100
AcDbArc
 50
180.000008651422
 51
269.999997495521
  0
ARC
  5
607
100
AcDbEntity
  8
0
  6
CONTINUOUS
 62
          15
100
AcDbCircle
 10
25.600584920224
 20
12.494402230008
 30
0.0
 40
1.319624927854
100
AcDbArc
 50
180.000008651422
 51
269.999997495521
  0
ARC
  5
608
100
AcDbEntity
  8
0
  6
CONTINUOUS
 62
          15
100
AcDbCircle
 10
25.31366883462
 20
13.87140139455
 30
0.0
 40
0.229499976655
100
AcDbArc
 50
269.999997495521
 51
0.0
  0
LINE
  5
609
100
AcDbEntity
  8
0
  6
CONTINUOUS
 62
          15
100
AcDbLine
 10
22.100727474661
 20
13.87140139455
 30
0.0
 11
22.100727474661
 21
18.002405246003
 31
0.0
  0
LINE
  5
60A
100
AcDbEntity
  8
0
  6
CONTINUOUS
 62
          15
100
AcDbLine
 10
25.543211875629
 20
13.87140139455
 30
0.0
 11
25.543211875629
 21
18.002405246003
 31
0.0
  0
LINE
  5
60B
100
AcDbEntity
  8
0
  6
CONTINUOUS
 62
          15
100
AcDbLine
 10
22.330219653041
 20
13.641902858341
 30
0.0
 11
25.31366883462
 21
13.641902858341
 31
0.0
  0
LINE
  5
60C
100
AcDbEntity
  8
0
  6
CONTINUOUS
 62
          15
100
AcDbLine
 10
22.330219653041
 20
18.231903782213
 30
0.0
 11
25.31366883462
 21
18.231903782213
 31
0.0
  0
LINE
  5
60D
100
AcDbEntity
  8
0
  6
CONTINUOUS
 62
          15
100
AcDbLine
 10
22.789204009803
 20
14.100903109674
 30
0.0
 11
24.854684477858
 21
14.100903109674
 31
0.0
  0
LINE
  5
60E
100
AcDbEntity
  8
0
  6
CONTINUOUS
 62
          15
100
AcDbLine
 10
22.789204009803
 20
17.77290353088
 30
0.0
 11
24.854684477858
 21
17.77290353088
 31
0.0
  0
LINE
  5
60F
100
AcDbEntity
  8
0
  6
CONTINUOUS
 62
          15
100
AcDbLine
 10
22.559711831422
 20
14.330401645883
 30
0.0
 11
22.559711831422
 21
17.543401815756
 31
0.0
  0
LINE
  5
610
100
AcDbEntity
  8
0
  6
CONTINUOUS
 62
          15
100
AcDbLine
 10
25.084176656239
 20
14.330401645883
 30
0.0
 11
25.084176656239
 21
17.543401815756
 31
0.0
  0
ARC
  5
611
100
AcDbEntity
  8
0
  6
CONTINUOUS
 62
          15
100
AcDbCircle
 10
22.789204009803
 20
17.543401815756
 30
0.0
 40
0.229499976655
100
AcDbArc
 50
90.000002504478
 51
180.000008651422
  0
ARC
  5
612
100
AcDbEntity
  8
0
  6
CONTINUOUS
 62
          15
100
AcDbCircle
 10
24.854684477858
 20
17.543401815756
 30
0.0
 40
0.229499976655
100
AcDbArc
 50
0.0
 51
90.000002504478
  0
ARC
  5
613
100
AcDbEntity
  8
0
  6
CONTINUOUS
 62
          15
100
AcDbCircle
 10
22.789204009803
 20
14.330401645883
 30
0.0
 40
0.229499976655
100
AcDbArc
 50
180.000008651422
 51
269.999997495521
  0
ARC
  5
614
100
AcDbEntity
  8
0
  6
CONTINUOUS
 62
          15
100
AcDbCircle
 10
22.330219653041
 20
18.002405246003
 30
0.0
 40
0.229499976655
100
AcDbArc
 50
90.000002504478
 51
180.000008651422
  0
ARC
  5
615
100
AcDbEntity
  8
0
  6
CONTINUOUS
 62
          15
100
AcDbCircle
 10
25.31366883462
 20
18.002405246003
 30
0.0
 40
0.229499976655
100
AcDbArc
 50
0.0
 51
90.000002504478
  0
ARC
  5
616
100
AcDbEntity
  8
0
  6
CONTINUOUS
 62
          15
100
AcDbCircle
 10
22.330219653041
 20
13.87140139455
 30
0.0
 40
0.229499976655
100
AcDbArc
 50
180.000008651422
 51
269.999997495521
  0
LINE
  5
617
100
AcDbEntity
  8
0
  6
CONTINUOUS
 62
          15
100
AcDbLine
 10
10.3093619373
 20
22.678349706397
 30
0.0
 11
23.789977082015
 21
22.678349706397
 31
0.0
  0
LINE
  5
618
100
AcDbEntity
  8
0
  6
CONTINUOUS
 62
          15
100
AcDbLine
 10
23.789977082015
 20
18.231903782213
 30
0.0
 11
23.789977082015
 21
22.678349706397
 31
0.0
  0
ENDBLK
  5
619
100
AcDbEntity
  8
0
  6
BYBLOCK
 62
           0
100
AcDbBlockEnd
  0
BLOCK
  5
61A
100
AcDbEntity
  8
0
100
AcDbBlockBegin
  2
PLANT_19
 70
          64
 10
0.0
 20
0.0
 30
0.0
  3
PLANT_19
  1

  0
LINE
  5
61B
100
AcDbEntity
  8
0
  6
CONTINUOUS
 62
          15
100
AcDbLine
 10
16.5
 20
2.625
 30
0.0
 11
23.650207519531
 21
2.625
 31
0.0
  0
LINE
  5
61C
100
AcDbEntity
  8
0
  6
CONTINUOUS
 62
          15
100
AcDbLine
 10
1.875
 20
2.625
 30
0.0
 11
14.625
 21
2.625
 31
0.0
  0
LINE
  5
61D
100
AcDbEntity
  8
0
  6
CONTINUOUS
 62
          15
100
AcDbLine
 10
-7.150207519531
 20
2.625
 30
0.0
 11
0.0
 21
2.625
 31
0.0
  0
LINE
  5
61E
100
AcDbEntity
  8
0
  6
CONTINUOUS
 62
          15
100
AcDbLine
 10
23.25
 20
2.625
 30
0.0
 11
23.25
 21
15.374999046326
 31
0.0
  0
LINE
  5
61F
100
AcDbEntity
  8
0
  6
CONTINUOUS
 62
          15
100
AcDbLine
 10
-5.25
 20
15.374999046326
 30
0.0
 11
-7.150207519531
 21
15.374999046326
 31
0.0
  0
LINE
  5
620
100
AcDbEntity
  8
0
  6
CONTINUOUS
 62
          15
100
AcDbLine
 10
3.75
 20
15.374999046326
 30
0.0
 11
-0.75
 21
15.374999046326
 31
0.0
  0
LINE
  5
621
100
AcDbEntity
  8
0
  6
CONTINUOUS
 62
          15
100
AcDbLine
 10
17.25
 20
15.374999046326
 30
0.0
 11
12.75
 21
15.374999046326
 31
0.0
  0
LINE
  5
622
100
AcDbEntity
  8
0
  6
CONTINUOUS
 62
          15
100
AcDbLine
 10
23.650207519531
 20
15.374999046326
 30
0.0
 11
21.75
 21
15.374999046326
 31
0.0
  0
LINE
  5
623
100
AcDbEntity
  8
0
  6
CONTINUOUS
 62
          15
100
AcDbLine
 10
-6.75
 20
15.374999046326
 30
0.0
 11
-6.75
 21
2.625
 31
0.0
  0
LINE
  5
624
100
AcDbEntity
  8
0
  6
CONTINUOUS
 62
          15
100
AcDbLine
 10
3.75
 20
15.374999046326
 30
0.0
 11
3.75
 21
26.812500953674
 31
0.0
  0
LINE
  5
625
100
AcDbEntity
  8
0
  6
CONTINUOUS
 62
          15
100
AcDbLine
 10
3.75
 20
14.999999046326
 30
0.0
 11
3.75
 21
15.374999046326
 31
0.0
  0
LINE
  5
626
100
AcDbEntity
  8
0
  6
CONTINUOUS
 62
          15
100
AcDbLine
 10
12.75
 20
14.999999046326
 30
0.0
 11
12.75
 21
26.812500953674
 31
0.0
  0
LINE
  5
627
100
AcDbEntity
  8
0
  6
CONTINUOUS
 62
          15
100
AcDbLine
 10
3.75
 20
14.999999046326
 30
0.0
 11
12.75
 21
14.999999046326
 31
0.0
  0
ARC
  5
628
100
AcDbEntity
  8
0
  6
CONTINUOUS
 62
          15
100
AcDbCircle
 10
-2.6015625
 20
8.999999046326
 30
0.0
 40
8.2734375
100
AcDbArc
 50
135.307905269407
 51
224.692094730593
  0
ARC
  5
629
100
AcDbEntity
  8
0
  6
CONTINUOUS
 62
          15
100
AcDbCircle
 10
19.1015625
 20
8.999999046326
 30
0.0
 40
8.2734375
100
AcDbArc
 50
315.30790026045
 51
44.692099739549
  0
ARC
  5
62A
100
AcDbEntity
  8
0
  6
CONTINUOUS
 62
          15
100
AcDbCircle
 10
-7.150207519531
 20
4.5
 30
0.0
 40
1.875
100
AcDbArc
 50
224.692094730593
 51
269.999997495521
  0
ARC
  5
62B
100
AcDbEntity
  8
0
  6
CONTINUOUS
 62
          15
100
AcDbCircle
 10
-7.150207519531
 20
13.499999046326
 30
0.0
 40
1.875
100
AcDbArc
 50
90.000002504478
 51
135.307905269407
  0
ARC
  5
62C
100
AcDbEntity
  8
0
  6
CONTINUOUS
 62
          15
100
AcDbCircle
 10
23.650207519531
 20
13.499999046326
 30
0.0
 40
1.875
100
AcDbArc
 50
44.692099739549
 51
90.000002504478
  0
ARC
  5
62D
100
AcDbEntity
  8
0
  6
CONTINUOUS
 62
          15
100
AcDbCircle
 10
23.650207519531
 20
4.5
 30
0.0
 40
1.875
100
AcDbArc
 50
269.999997495521
 51
315.30790026045
  0
LINE
  5
62E
100
AcDbEntity
  8
0
  6
CONTINUOUS
 62
          15
100
AcDbLine
 10
1.875
 20
0.0
 30
0.0
 11
1.875
 21
3.375
 31
0.0
  0
LINE
  5
62F
100
AcDbEntity
  8
0
  6
CONTINUOUS
 62
          15
100
AcDbLine
 10
14.625
 20
0.0
 30
0.0
 11
14.625
 21
3.375
 31
0.0
  0
LINE
  5
630
100
AcDbEntity
  8
0
  6
CONTINUOUS
 62
          15
100
AcDbLine
 10
0.0
 20
0.0
 30
0.0
 11
0.0
 21
3.375
 31
0.0
  0
LINE
  5
631
100
AcDbEntity
  8
0
  6
CONTINUOUS
 62
          15
100
AcDbLine
 10
16.5
 20
0.0
 30
0.0
 11
16.5
 21
3.375
 31
0.0
  0
LINE
  5
632
100
AcDbEntity
  8
0
  6
CONTINUOUS
 62
          15
100
AcDbLine
 10
14.625
 20
0.0
 30
0.0
 11
16.5
 21
0.0
 31
0.0
  0
LINE
  5
633
100
AcDbEntity
  8
0
  6
CONTINUOUS
 62
          15
100
AcDbLine
 10
0.0
 20
0.0
 30
0.0
 11
1.875
 21
0.0
 31
0.0
  0
LINE
  5
634
100
AcDbEntity
  8
0
  6
CONTINUOUS
 62
          15
100
AcDbLine
 10
14.625
 20
3.375
 30
0.0
 11
16.5
 21
3.375
 31
0.0
  0
CIRCLE
  5
635
100
AcDbEntity
  8
0
  6
CONTINUOUS
 62
          15
100
AcDbCircle
 10
-3.0
 20
19.874999046326
 30
0.0
 40
1.3125
  0
CIRCLE
  5
636
100
AcDbEntity
  8
0
  6
CONTINUOUS
 62
          15
100
AcDbCircle
 10
-3.0
 20
19.874999046326
 30
0.0
 40
0.5625
  0
ARC
  5
637
100
AcDbEntity
  8
0
  6
CONTINUOUS
 62
          15
100
AcDbCircle
 10
-3.0
 20
19.874999046326
 30
0.0
 40
2.25
100
AcDbArc
 50
199.471225069349
 51
336.443536448913
  0
ARC
  5
638
100
AcDbEntity
  8
0
  6
CONTINUOUS
 62
          15
100
AcDbCircle
 10
-3.0
 20
19.874999046326
 30
0.0
 40
2.25
100
AcDbArc
 50
23.556463551086
 51
146.442684560036
  0
LINE
  5
639
100
AcDbEntity
  8
0
  6
CONTINUOUS
 62
          15
100
AcDbLine
 10
-0.9375
 20
17.624999046326
 30
0.0
 11
-0.9375
 21
22.125000953674
 31
0.0
  0
LINE
  5
63A
100
AcDbEntity
  8
0
  6
CONTINUOUS
 62
          15
100
AcDbLine
 10
1.6875
 20
17.624999046326
 30
0.0
 11
1.6875
 21
22.125000953674
 31
0.0
  0
LINE
  5
63B
100
AcDbEntity
  8
0
  6
CONTINUOUS
 62
          15
100
AcDbLine
 10
-4.875
 20
19.124999046326
 30
0.0
 11
-4.875
 21
21.375000953674
 31
0.0
  0
LINE
  5
63C
100
AcDbEntity
  8
0
  6
CONTINUOUS
 62
          15
100
AcDbLine
 10
-6.1875
 20
19.124999046326
 30
0.0
 11
-6.1875
 21
21.375000953674
 31
0.0
  0
LINE
  5
63D
100
AcDbEntity
  8
0
  6
CONTINUOUS
 62
          15
100
AcDbLine
 10
-0.9375
 20
22.125000953674
 30
0.0
 11
1.6875
 21
22.125000953674
 31
0.0
  0
LINE
  5
63E
100
AcDbEntity
  8
0
  6
CONTINUOUS
 62
          15
100
AcDbLine
 10
-0.9375
 20
17.624999046326
 30
0.0
 11
1.6875
 21
17.624999046326
 31
0.0
  0
LINE
  5
63F
100
AcDbEntity
  8
0
  6
CONTINUOUS
 62
          15
100
AcDbLine
 10
-6.1875
 20
19.124999046326
 30
0.0
 11
-4.875
 21
19.124999046326
 31
0.0
  0
LINE
  5
640
100
AcDbEntity
  8
0
  6
CONTINUOUS
 62
          15
100
AcDbLine
 10
-6.1875
 20
21.375000953674
 30
0.0
 11
-4.875
 21
21.375000953674
 31
0.0
  0
LINE
  5
641
100
AcDbEntity
  8
0
  6
CONTINUOUS
 62
          15
100
AcDbLine
 10
-4.875
 20
17.357432365417
 30
0.0
 11
-1.125
 21
17.357432365417
 31
0.0
  0
LINE
  5
642
100
AcDbEntity
  8
0
  6
CONTINUOUS
 62
          15
100
AcDbLine
 10
-5.25
 20
16.864609718323
 30
0.0
 11
-0.75
 21
16.864609718323
 31
0.0
  0
LINE
  5
643
100
AcDbEntity
  8
0
  6
CONTINUOUS
 62
          15
100
AcDbLine
 10
-4.875
 20
16.864609718323
 30
0.0
 11
-4.875
 21
17.357432365417
 31
0.0
  0
LINE
  5
644
100
AcDbEntity
  8
0
  6
CONTINUOUS
 62
          15
100
AcDbLine
 10
-1.125
 20
16.864609718323
 30
0.0
 11
-1.125
 21
17.357432365417
 31
0.0
  0
LINE
  5
645
100
AcDbEntity
  8
0
  6
CONTINUOUS
 62
          15
100
AcDbLine
 10
-5.25
 20
13.864609718323
 30
0.0
 11
-5.25
 21
16.864609718323
 31
0.0
  0
LINE
  5
646
100
AcDbEntity
  8
0
  6
CONTINUOUS
 62
          15
100
AcDbLine
 10
-0.75
 20
13.864609718323
 30
0.0
 11
-0.75
 21
16.864609718323
 31
0.0
  0
LINE
  5
647
100
AcDbEntity
  8
0
  6
CONTINUOUS
 62
          15
100
AcDbLine
 10
-1.488067626953
 20
13.864609718323
 30
0.0
 11
-0.75
 21
13.864609718323
 31
0.0
  0
LINE
  5
648
100
AcDbEntity
  8
0
  6
CONTINUOUS
 62
          15
100
AcDbLine
 10
-5.25
 20
13.864609718323
 30
0.0
 11
-4.511932373047
 21
13.864609718323
 31
0.0
  0
ARC
  5
649
100
AcDbEntity
  8
0
  6
CONTINUOUS
 62
          15
100
AcDbCircle
 10
-3.0
 20
11.999999046326
 30
0.0
 40
2.400565862656
100
AcDbArc
 50
50.962855435403
 51
129.037149573553
  0
CIRCLE
  5
64A
100
AcDbEntity
  8
0
  6
CONTINUOUS
 62
          15
100
AcDbCircle
 10
19.5
 20
19.874999046326
 30
0.0
 40
1.3125
  0
CIRCLE
  5
64B
100
AcDbEntity
  8
0
  6
CONTINUOUS
 62
          15
100
AcDbCircle
 10
19.5
 20
19.874999046326
 30
0.0
 40
0.5625
  0
ARC
  5
64C
100
AcDbEntity
  8
0
  6
CONTINUOUS
 62
          15
100
AcDbCircle
 10
19.5
 20
19.874999046326
 30
0.0
 40
2.25
100
AcDbArc
 50
199.471225069349
 51
336.443536448913
  0
ARC
  5
64D
100
AcDbEntity
  8
0
  6
CONTINUOUS
 62
          15
100
AcDbCircle
 10
19.5
 20
19.874999046326
 30
0.0
 40
2.25
100
AcDbArc
 50
23.556463551086
 51
146.442684560036
  0
LINE
  5
64E
100
AcDbEntity
  8
0
  6
CONTINUOUS
 62
          15
100
AcDbLine
 10
21.5625
 20
17.624999046326
 30
0.0
 11
21.5625
 21
22.125000953674
 31
0.0
  0
LINE
  5
64F
100
AcDbEntity
  8
0
  6
CONTINUOUS
 62
          15
100
AcDbLine
 10
24.1875
 20
17.624999046326
 30
0.0
 11
24.1875
 21
22.125000953674
 31
0.0
  0
LINE
  5
650
100
AcDbEntity
  8
0
  6
CONTINUOUS
 62
          15
100
AcDbLine
 10
17.625
 20
19.124999046326
 30
0.0
 11
17.625
 21
21.375000953674
 31
0.0
  0
LINE
  5
651
100
AcDbEntity
  8
0
  6
CONTINUOUS
 62
          15
100
AcDbLine
 10
16.3125
 20
19.124999046326
 30
0.0
 11
16.3125
 21
21.375000953674
 31
0.0
  0
LINE
  5
652
100
AcDbEntity
  8
0
  6
CONTINUOUS
 62
          15
100
AcDbLine
 10
21.5625
 20
22.125000953674
 30
0.0
 11
24.1875
 21
22.125000953674
 31
0.0
  0
LINE
  5
653
100
AcDbEntity
  8
0
  6
CONTINUOUS
 62
          15
100
AcDbLine
 10
21.5625
 20
17.624999046326
 30
0.0
 11
24.1875
 21
17.624999046326
 31
0.0
  0
LINE
  5
654
100
AcDbEntity
  8
0
  6
CONTINUOUS
 62
          15
100
AcDbLine
 10
16.3125
 20
19.124999046326
 30
0.0
 11
17.625
 21
19.124999046326
 31
0.0
  0
LINE
  5
655
100
AcDbEntity
  8
0
  6
CONTINUOUS
 62
          15
100
AcDbLine
 10
16.3125
 20
21.375000953674
 30
0.0
 11
17.625
 21
21.375000953674
 31
0.0
  0
LINE
  5
656
100
AcDbEntity
  8
0
  6
CONTINUOUS
 62
          15
100
AcDbLine
 10
17.625
 20
17.357432365417
 30
0.0
 11
21.375
 21
17.357432365417
 31
0.0
  0
LINE
  5
657
100
AcDbEntity
  8
0
  6
CONTINUOUS
 62
          15
100
AcDbLine
 10
17.25
 20
16.864609718323
 30
0.0
 11
21.75
 21
16.864609718323
 31
0.0
  0
LINE
  5
658
100
AcDbEntity
  8
0
  6
CONTINUOUS
 62
          15
100
AcDbLine
 10
17.625
 20
16.864609718323
 30
0.0
 11
17.625
 21
17.357432365417
 31
0.0
  0
LINE
  5
659
100
AcDbEntity
  8
0
  6
CONTINUOUS
 62
          15
100
AcDbLine
 10
21.375
 20
16.864609718323
 30
0.0
 11
21.375
 21
17.357432365417
 31
0.0
  0
LINE
  5
65A
100
AcDbEntity
  8
0
  6
CONTINUOUS
 62
          15
100
AcDbLine
 10
17.25
 20
13.864609718323
 30
0.0
 11
17.25
 21
16.864609718323
 31
0.0
  0
LINE
  5
65B
100
AcDbEntity
  8
0
  6
CONTINUOUS
 62
          15
100
AcDbLine
 10
21.75
 20
13.864609718323
 30
0.0
 11
21.75
 21
16.864609718323
 31
0.0
  0
LINE
  5
65C
100
AcDbEntity
  8
0
  6
CONTINUOUS
 62
          15
100
AcDbLine
 10
21.011901855469
 20
13.864609718323
 30
0.0
 11
21.75
 21
13.864609718323
 31
0.0
  0
LINE
  5
65D
100
AcDbEntity
  8
0
  6
CONTINUOUS
 62
          15
100
AcDbLine
 10
17.25
 20
13.864609718323
 30
0.0
 11
17.988037109375
 21
13.864609718323
 31
0.0
  0
ARC
  5
65E
100
AcDbEntity
  8
0
  6
CONTINUOUS
 62
          15
100
AcDbCircle
 10
19.5
 20
11.999999046326
 30
0.0
 40
2.400565862656
100
AcDbArc
 50
50.962855435403
 51
129.037149573553
  0
LINE
  5
65F
100
AcDbEntity
  8
0
  6
CONTINUOUS
 62
          15
100
AcDbLine
 10
0.0
 20
3.375
 30
0.0
 11
1.875
 21
3.375
 31
0.0
  0
LINE
  5
660
100
AcDbEntity
  8
0
  6
CONTINUOUS
 62
          15
100
AcDbLine
 10
4.087493896484
 20
22.537499427795
 30
0.0
 11
4.087493896484
 21
26.474999427795
 31
0.0
  0
LINE
  5
661
100
AcDbEntity
  8
0
  6
CONTINUOUS
 62
          15
100
AcDbLine
 10
4.087493896484
 20
15.337500572205
 30
0.0
 11
4.087493896484
 21
22.199997901917
 31
0.0
  0
LINE
  5
662
100
AcDbEntity
  8
0
  6
CONTINUOUS
 62
          15
100
AcDbLine
 10
12.412475585938
 20
22.537499427795
 30
0.0
 11
12.412475585938
 21
26.474999427795
 31
0.0
  0
LINE
  5
663
100
AcDbEntity
  8
0
  6
CONTINUOUS
 62
          15
100
AcDbLine
 10
12.412475585938
 20
15.337500572205
 30
0.0
 11
12.412475585938
 21
22.199997901917
 31
0.0
  0
LINE
  5
664
100
AcDbEntity
  8
0
  6
CONTINUOUS
 62
          15
100
AcDbLine
 10
3.75
 20
26.812500953674
 30
0.0
 11
12.75
 21
26.812500953674
 31
0.0
  0
LINE
  5
665
100
AcDbEntity
  8
0
  6
CONTINUOUS
 62
          15
100
AcDbLine
 10
4.087493896484
 20
26.474999427795
 30
0.0
 11
12.412475585938
 21
26.474999427795
 31
0.0
  0
LINE
  5
666
100
AcDbEntity
  8
0
  6
CONTINUOUS
 62
          15
100
AcDbLine
 10
4.087493896484
 20
22.537499427795
 30
0.0
 11
12.412475585938
 21
22.537499427795
 31
0.0
  0
LINE
  5
667
100
AcDbEntity
  8
0
  6
CONTINUOUS
 62
          15
100
AcDbLine
 10
9.224975585938
 20
22.199997901917
 30
0.0
 11
12.412475585938
 21
22.199997901917
 31
0.0
  0
LINE
  5
668
100
AcDbEntity
  8
0
  6
CONTINUOUS
 62
          15
100
AcDbLine
 10
4.087493896484
 20
22.199997901917
 30
0.0
 11
7.274993896484
 21
22.199997901917
 31
0.0
  0
LINE
  5
669
100
AcDbEntity
  8
0
  6
CONTINUOUS
 62
          15
100
AcDbLine
 10
9.224975585938
 20
15.337500572205
 30
0.0
 11
12.412475585938
 21
15.337500572205
 31
0.0
  0
LINE
  5
66A
100
AcDbEntity
  8
0
  6
CONTINUOUS
 62
          15
100
AcDbLine
 10
4.087493896484
 20
15.337500572205
 30
0.0
 11
7.274993896484
 21
15.337500572205
 31
0.0
  0
LINE
  5
66B
100
AcDbEntity
  8
0
  6
CONTINUOUS
 62
          15
100
AcDbLine
 10
7.274993896484
 20
15.337500572205
 30
0.0
 11
7.274993896484
 21
22.199997901917
 31
0.0
  0
LINE
  5
66C
100
AcDbEntity
  8
0
  6
CONTINUOUS
 62
          15
100
AcDbLine
 10
9.224975585938
 20
15.337500572205
 30
0.0
 11
9.224975585938
 21
22.199997901917
 31
0.0
  0
CIRCLE
  5
66D
100
AcDbEntity
  8
0
  6
CONTINUOUS
 62
          15
100
AcDbCircle
 10
8.25
 20
20.121876716614
 30
0.0
 40
0.75
  0
CIRCLE
  5
66E
100
AcDbEntity
  8
0
  6
CONTINUOUS
 62
          15
100
AcDbCircle
 10
8.25
 20
18.021216392517
 30
0.0
 40
0.75
  0
ENDBLK
  5
66F
100
AcDbEntity
  8
0
  6
BYBLOCK
 62
           0
100
AcDbBlockEnd
  0
BLOCK
  5
670
100
AcDbEntity
  8
0
100
AcDbBlockBegin
  2
MAN_20
 70
          64
 10
0.0
 20
0.0
 30
0.0
  3
MAN_20
  1

  0
LINE
  5
671
100
AcDbEntity
  8
0
  6
CONTINUOUS
 62
          15
100
AcDbLine
 10
26.690672767533
 20
0.101403391305
 30
0.0
 11
26.690672767533
 21
12.035403568133
 31
0.0
  0
LINE
  5
672
100
AcDbEntity
  8
0
  6
CONTINUOUS
 62
          15
100
AcDbLine
 10
28.985696276597
 20
0.101403391305
 30
0.0
 11
28.985696276597
 21
12.035403568133
 31
0.0
  0
LINE
  5
673
100
AcDbEntity
  8
0
  6
CONTINUOUS
 62
          15
100
AcDbLine
 10
26.920215808542
 20
-0.128096734361
 30
0.0
 11
28.756204098217
 21
-0.128096734361
 31
0.0
  0
LINE
  5
674
100
AcDbEntity
  8
0
  6
CONTINUOUS
 62
          15
100
AcDbLine
 10
27.608692343684
 20
13.159718785297
 30
0.0
 11
27.608692343684
 21
13.641902858341
 31
0.0
  0
LINE
  5
675
100
AcDbEntity
  8
0
  6
CONTINUOUS
 62
          15
100
AcDbLine
 10
28.067676700446
 20
13.159718785297
 30
0.0
 11
28.067676700446
 21
13.641902858341
 31
0.0
  0
LINE
  5
676
100
AcDbEntity
  8
0
  6
CONTINUOUS
 62
          15
100
AcDbLine
 10
27.608692343684
 20
13.641902858341
 30
0.0
 11
28.067676700446
 21
13.641902858341
 31
0.0
  0
ARC
  5
677
100
AcDbEntity
  8
0
  6
CONTINUOUS
 62
          15
100
AcDbCircle
 10
27.838184522065
 20
12.035403568133
 30
0.0
 40
1.147500032286
100
AcDbArc
 50
101.536956993817
 51
180.000008651422
  0
ARC
  5
678
100
AcDbEntity
  8
0
  6
CONTINUOUS
 62
          15
100
AcDbCircle
 10
27.838184522065
 20
12.035403568133
 30
0.0
 40
1.147500032286
100
AcDbArc
 50
0.0
 51
78.46304118495
  0
LINE
  5
679
100
AcDbEntity
  8
0
  6
CONTINUOUS
 62
          15
100
AcDbLine
 10
27.723438432875
 20
13.641902858341
 30
0.0
 11
27.723438432875
 21
14.100903109674
 31
0.0
  0
LINE
  5
67A
100
AcDbEntity
  8
0
  6
CONTINUOUS
 62
          15
100
AcDbLine
 10
27.952930611256
 20
13.641902858341
 30
0.0
 11
27.952930611256
 21
14.100903109674
 31
0.0
  0
LINE
  5
67B
100
AcDbEntity
  8
0
  6
CONTINUOUS
 62
          15
100
AcDbLine
 10
27.723438432875
 20
14.100903109674
 30
0.0
 11
27.952930611256
 21
14.100903109674
 31
0.0
  0
LINE
  5
67C
100
AcDbEntity
  8
0
  6
CONTINUOUS
 62
          15
100
AcDbLine
 10
28.985696276597
 20
15.936900936091
 30
0.0
 11
27.457833788481
 21
16.05149284794
 31
0.0
  0
LINE
  5
67D
100
AcDbEntity
  8
0
  6
CONTINUOUS
 62
          15
100
AcDbLine
 10
28.474272550175
 20
15.860187377128
 30
0.0
 11
26.690672767533
 21
15.993954499803
 31
0.0
  0
LINE
  5
67E
100
AcDbEntity
  8
0
  6
CONTINUOUS
 62
          15
100
AcDbLine
 10
28.985696276597
 20
16.281153508776
 30
0.0
 11
26.690672767533
 21
16.109028017162
 31
0.0
  0
LINE
  5
67F
100
AcDbEntity
  8
0
  6
CONTINUOUS
 62
          15
100
AcDbLine
 10
28.985696276597
 20
16.166079991417
 30
0.0
 11
26.699268551697
 21
15.994598229941
 31
0.0
  0
LINE
  5
680
100
AcDbEntity
  8
0
  6
CONTINUOUS
 62
          15
100
AcDbLine
 10
28.985696276597
 20
16.281153508776
 30
0.0
 11
27.457833788481
 21
16.395740652254
 31
0.0
  0
LINE
  5
681
100
AcDbEntity
  8
0
  6
CONTINUOUS
 62
          15
100
AcDbLine
 10
28.218535255649
 20
16.223618339554
 30
0.0
 11
26.690672767533
 21
16.338205483031
 31
0.0
  0
LINE
  5
682
100
AcDbEntity
  8
0
  6
CONTINUOUS
 62
          15
100
AcDbLine
 10
28.985696276597
 20
16.625404492005
 30
0.0
 11
26.690672767533
 21
16.453275821476
 31
0.0
  0
LINE
  5
683
100
AcDbEntity
  8
0
  6
CONTINUOUS
 62
          15
100
AcDbLine
 10
28.985696276597
 20
16.510330974645
 30
0.0
 11
26.690672767533
 21
16.338205483031
 31
0.0
  0
LINE
  5
684
100
AcDbEntity
  8
0
  6
CONTINUOUS
 62
          15
100
AcDbLine
 10
28.985696276597
 20
16.625404492005
 30
0.0
 11
27.838184522065
 21
16.797526804704
 31
0.0
  0
LINE
  5
685
100
AcDbEntity
  8
0
  6
CONTINUOUS
 62
          15
100
AcDbLine
 10
28.470000089407
 20
16.586723463268
 30
0.0
 11
27.838184522065
 21
16.681493255238
 31
0.0
  0
LINE
  5
686
100
AcDbEntity
  8
0
  6
CONTINUOUS
 62
          15
100
AcDbLine
 10
28.985696276597
 20
15.936900936091
 30
0.0
 11
27.838184522065
 21
15.764777033934
 31
0.0
  0
LINE
  5
687
100
AcDbEntity
  8
0
  6
CONTINUOUS
 62
          15
100
AcDbLine
 10
28.985696276597
 20
15.820868976082
 30
0.0
 11
27.838184522065
 21
15.648743484468
 31
0.0
  0
ARC
  5
688
100
AcDbEntity
  8
0
  6
CONTINUOUS
 62
          15
100
AcDbCircle
 10
26.690672767533
 20
16.395740652254
 30
0.0
 40
0.057374994164
100
AcDbArc
 50
94.289156397571
 51
274.289151388614
  0
ARC
  5
689
100
AcDbEntity
  8
0
  6
CONTINUOUS
 62
          15
100
AcDbCircle
 10
26.690672767533
 20
16.05149284794
 30
0.0
 40
0.057374994164
100
AcDbArc
 50
94.289156397571
 51
265.710870923185
  0
ARC
  5
68A
100
AcDbEntity
  8
0
  6
CONTINUOUS
 62
          15
100
AcDbCircle
 10
28.985696276597
 20
15.878887340272
 30
0.0
 40
0.057374994164
100
AcDbArc
 50
278.530767165084
 51
98.530765343851
  0
ARC
  5
68B
100
AcDbEntity
  8
0
  6
CONTINUOUS
 62
          15
100
AcDbCircle
 10
28.985696276597
 20
16.223618339554
 30
0.0
 40
0.057374994164
100
AcDbArc
 50
274.289137728236
 51
94.289156397571
  0
ARC
  5
68C
100
AcDbEntity
  8
0
  6
CONTINUOUS
 62
          15
100
AcDbCircle
 10
28.985696276597
 20
16.567866143868
 30
0.0
 40
0.057374994164
100
AcDbArc
 50
274.289151388614
 51
94.289156397571
  0
ARC
  5
68D
100
AcDbEntity
  8
0
  6
CONTINUOUS
 62
          15
100
AcDbCircle
 10
27.838184522065
 20
16.739514798343
 30
0.0
 40
0.057374994164
100
AcDbArc
 50
81.469232834915
 51
261.469166354256
  0
ARC
  5
68E
100
AcDbEntity
  8
0
  6
CONTINUOUS
 62
          15
100
AcDbCircle
 10
27.838184522065
 20
15.706760259201
 30
0.0
 40
0.057374994164
100
AcDbArc
 50
98.530765343851
 51
278.530767165084
  0
LINE
  5
68F
100
AcDbEntity
  8
0
  6
CONTINUOUS
 62
          15
100
AcDbLine
 10
27.78081147747
 20
14.100903109674
 30
0.0
 11
27.78081147747
 21
15.706760259201
 31
0.0
  0
LINE
  5
690
100
AcDbEntity
  8
0
  6
CONTINUOUS
 62
          15
100
AcDbLine
 10
27.89555756666
 20
14.100903109674
 30
0.0
 11
27.89555756666
 21
15.657348805374
 31
0.0
  0
ARC
  5
691
100
AcDbEntity
  8
0
  6
CONTINUOUS
 62
          15
100
AcDbCircle
 10
26.920215808542
 20
0.101403391305
 30
0.0
 40
0.229499976655
100
AcDbArc
 50
180.000008651422
 51
269.999997495521
  0
ARC
  5
692
100
AcDbEntity
  8
0
  6
CONTINUOUS
 62
          15
100
AcDbCircle
 10
28.756204098217
 20
0.101403391305
 30
0.0
 40
0.229499976655
100
AcDbArc
 50
269.999997495521
 51
0.0
  0
ARC
  5
693
100
AcDbEntity
  8
0
  6
CONTINUOUS
 62
          15
100
AcDbCircle
 10
24.854684477858
 20
14.330401645883
 30
0.0
 40
0.229499976655
100
AcDbArc
 50
269.999997495521
 51
0.0
  0
LINE
  5
694
100
AcDbEntity
  8
0
  6
CONTINUOUS
 62
          15
100
AcDbLine
 10
24.280954031906
 20
12.494402230008
 30
0.0
 11
24.280954031906
 21
13.641902858341
 31
0.0
  0
LINE
  5
695
100
AcDbEntity
  8
0
  6
CONTINUOUS
 62
          15
100
AcDbLine
 10
24.453073165692
 20
12.494402230008
 30
0.0
 11
24.453073165692
 21
13.641902858341
 31
0.0
  0
LINE
  5
696
100
AcDbEntity
  8
0
  6
CONTINUOUS
 62
          15
100
AcDbLine
 10
25.600584920224
 20
11.346903191133
 30
0.0
 11
26.690672767533
 21
11.346903191133
 31
0.0
  0
LINE
  5
697
100
AcDbEntity
  8
0
  6
CONTINUOUS
 62
          15
100
AcDbLine
 10
25.600584920224
 20
11.174777699519
 30
0.0
 11
26.690672767533
 21
11.174777699519
 31
0.0
  0
ARC
  5
698
100
AcDbEntity
  8
0
  6
CONTINUOUS
 62
          15
100
AcDbCircle
 10
25.600584920224
 20
12.494402230008
 30
0.0
 40
1.147500032286
100
AcDbArc
 50
180.000008651422
 51
269.999997495521
  0
ARC
  5
699
100
AcDbEntity
  8
0
  6
CONTINUOUS
 62
          15
100
AcDbCircle
 10
25.600584920224
 20
12.494402230008
 30
0.0
 40
1.319624927854
100
AcDbArc
 50
180.000008651422
 51
269.999997495521
  0
ARC
  5
69A
100
AcDbEntity
  8
0
  6
CONTINUOUS
 62
          15
100
AcDbCircle
 10
25.31366883462
 20
13.87140139455
 30
0.0
 40
0.229499976655
100
AcDbArc
 50
269.999997495521
 51
0.0
  0
LINE
  5
69B
100
AcDbEntity
  8
0
  6
CONTINUOUS
 62
          15
100
AcDbLine
 10
22.100727474661
 20
13.87140139455
 30
0.0
 11
22.100727474661
 21
18.002405246003
 31
0.0
  0
LINE
  5
69C
100
AcDbEntity
  8
0
  6
CONTINUOUS
 62
          15
100
AcDbLine
 10
25.543211875629
 20
13.87140139455
 30
0.0
 11
25.543211875629
 21
18.002405246003
 31
0.0
  0
LINE
  5
69D
100
AcDbEntity
  8
0
  6
CONTINUOUS
 62
          15
100
AcDbLine
 10
22.330219653041
 20
13.641902858341
 30
0.0
 11
25.31366883462
 21
13.641902858341
 31
0.0
  0
LINE
  5
69E
100
AcDbEntity
  8
0
  6
CONTINUOUS
 62
          15
100
AcDbLine
 10
22.330219653041
 20
18.231903782213
 30
0.0
 11
25.31366883462
 21
18.231903782213
 31
0.0
  0
LINE
  5
69F
100
AcDbEntity
  8
0
  6
CONTINUOUS
 62
          15
100
AcDbLine
 10
22.789204009803
 20
14.100903109674
 30
0.0
 11
24.854684477858
 21
14.100903109674
 31
0.0
  0
LINE
  5
6A0
100
AcDbEntity
  8
0
  6
CONTINUOUS
 62
          15
100
AcDbLine
 10
22.789204009803
 20
17.77290353088
 30
0.0
 11
24.854684477858
 21
17.77290353088
 31
0.0
  0
LINE
  5
6A1
100
AcDbEntity
  8
0
  6
CONTINUOUS
 62
          15
100
AcDbLine
 10
22.559711831422
 20
14.330401645883
 30
0.0
 11
22.559711831422
 21
17.543401815756
 31
0.0
  0
LINE
  5
6A2
100
AcDbEntity
  8
0
  6
CONTINUOUS
 62
          15
100
AcDbLine
 10
25.084176656239
 20
14.330401645883
 30
0.0
 11
25.084176656239
 21
17.543401815756
 31
0.0
  0
ARC
  5
6A3
100
AcDbEntity
  8
0
  6
CONTINUOUS
 62
          15
100
AcDbCircle
 10
22.789204009803
 20
17.543401815756
 30
0.0
 40
0.229499976655
100
AcDbArc
 50
90.000002504478
 51
180.000008651422
  0
ARC
  5
6A4
100
AcDbEntity
  8
0
  6
CONTINUOUS
 62
          15
100
AcDbCircle
 10
24.854684477858
 20
17.543401815756
 30
0.0
 40
0.229499976655
100
AcDbArc
 50
0.0
 51
90.000002504478
  0
ARC
  5
6A5
100
AcDbEntity
  8
0
  6
CONTINUOUS
 62
          15
100
AcDbCircle
 10
22.789204009803
 20
14.330401645883
 30
0.0
 40
0.229499976655
100
AcDbArc
 50
180.000008651422
 51
269.999997495521
  0
ARC
  5
6A6
100
AcDbEntity
  8
0
  6
CONTINUOUS
 62
          15
100
AcDbCircle
 10
22.330219653041
 20
18.002405246003
 30
0.0
 40
0.229499976655
100
AcDbArc
 50
90.000002504478
 51
180.000008651422
  0
ARC
  5
6A7
100
AcDbEntity
  8
0
  6
CONTINUOUS
 62
          15
100
AcDbCircle
 10
25.31366883462
 20
18.002405246003
 30
0.0
 40
0.229499976655
100
AcDbArc
 50
0.0
 51
90.000002504478
  0
ARC
  5
6A8
100
AcDbEntity
  8
0
  6
CONTINUOUS
 62
          15
100
AcDbCircle
 10
22.330219653041
 20
13.87140139455
 30
0.0
 40
0.229499976655
100
AcDbArc
 50
180.000008651422
 51
269.999997495521
  0
LINE
  5
6A9
100
AcDbEntity
  8
0
  6
CONTINUOUS
 62
          15
100
AcDbLine
 10
10.3093619373
 20
22.678349706397
 30
0.0
 11
23.789977082015
 21
22.678349706397
 31
0.0
  0
LINE
  5
6AA
100
AcDbEntity
  8
0
  6
CONTINUOUS
 62
          15
100
AcDbLine
 10
23.789977082015
 20
18.231903782213
 30
0.0
 11
23.789977082015
 21
22.678349706397
 31
0.0
  0
ENDBLK
  5
6AB
100
AcDbEntity
  8
0
  6
BYBLOCK
 62
           0
100
AcDbBlockEnd
  0
BLOCK
  5
6AC
100
AcDbEntity
  8
0
100
AcDbBlockBegin
  2
CABLEREQ_21
 70
          64
 10
0.0
 20
0.0
 30
0.0
  3
CABLEREQ_21
  1

  0
TEXT
  5
6AD
100
AcDbEntity
  8
0
  6
CONTINUOUS
 62
          15
100
AcDbText
 10
-0.147918701172
 20
9.905471038818
 30
0.0
 40
1.5
  1
ALL SIGNAL CABLE TO BE A MINIMUM
 41
1.133333365122
  7
GOTHICI
100
AcDbText
  0
TEXT
  5
6AE
100
AcDbEntity
  8
0
  6
CONTINUOUS
 62
          15
100
AcDbText
 10
-0.147918701172
 20
7.505471038818
 30
0.0
 40
1.5
  1
OF 0.5 mm sq SCREENED / S.W.A /
 41
1.133333365122
  7
GOTHICI
100
AcDbText
  0
TEXT
  5
6AF
100
AcDbEntity
  8
0
  6
CONTINUOUS
 62
          15
100
AcDbText
 10
-0.147918701172
 20
5.105471038818
 30
0.0
 40
1.5
  1
OR IN METAL CONDUIT.
 41
1.133333365122
  7
GOTHICI
100
AcDbText
  0
TEXT
  5
6B0
100
AcDbEntity
  8
0
  6
CONTINUOUS
 62
          15
100
AcDbText
 10
-0.147918701172
 20
2.705471038818
 30
0.0
 40
1.5
  1

 41
1.133333365122
  7
GOTHICI
100
AcDbText
  0
TEXT
  5
6B1
100
AcDbEntity
  8
0
  6
CONTINUOUS
 62
          15
100
AcDbText
 10
-0.147918701172
 20
0.305471038818
 30
0.0
 40
1.5
  1
ALL JUNCTION BOXES MUST HAVE
 41
1.133333365122
  7
GOTHICI
100
AcDbText
  0
TEXT
  5
6B2
100
AcDbEntity
  8
0
  6
CONTINUOUS
 62
          15
100
AcDbText
 10
-0.147918701172
 20
-2.094528961182
 30
0.0
 40
1.5
  1
THE SCREENS CONNECTED THROUGH
 41
1.133333365122
  7
GOTHICI
100
AcDbText
  0
TEXT
  5
6B3
100
AcDbEntity
  8
0
  6
CONTINUOUS
 62
          15
100
AcDbText
 10
-0.147918701172
 20
-4.494528961182
 30
0.0
 40
1.5
  1

 41
1.133333365122
  7
GOTHICI
100
AcDbText
  0
TEXT
  5
6B4
100
AcDbEntity
  8
0
  6
CONTINUOUS
 62
          15
100
AcDbText
 10
-0.147918701172
 20
-6.894528961182
 30
0.0
 40
1.5
  1
SCREENS MUST BE EARTHED
 41
1.133333365122
  7
GOTHICI
100
AcDbText
  0
TEXT
  5
6B5
100
AcDbEntity
  8
0
  6
CONTINUOUS
 62
          15
100
AcDbText
 10
-0.147918701172
 20
14.731793984771
 30
0.0
 40
2.0
  1
NOTE
  7
GOTHICI
100
AcDbText
  0
ENDBLK
  5
6B6
100
AcDbEntity
  8
0
  6
BYBLOCK
 62
           0
100
AcDbBlockEnd
  0
ENDSEC
  0
SECTION
  2
ENTITIES
  0
INSERT
  5
38
100
AcDbEntity
  8
0
  6
CONTINUOUS
 62
           7
100
AcDbBlockReference
  2
RTX_1
 10
40.0
 20
148.0
 30
0.0
 41
2.0
 42
2.0
 43
2.0
  0
INSERT
  5
39
100
AcDbEntity
  8
0
  6
CONTINUOUS
 62
           7
100
AcDbBlockReference
  2
SDX_2
 10
190.0
 20
148.0
 30
0.0
 41
1.5
 42
1.5
 43
1.5
  0
INSERT
  5
3A
100
AcDbEntity
  8
0
  6
CONTINUOUS
 62
           7
100
AcDbBlockReference
  2
SDXPSA_3
 10
194.997863769531
 20
147.994232177734
 30
0.0
  0
INSERT
  5
3B
100
AcDbEntity
  8
0
  6
CONTINUOUS
 62
           7
100
AcDbBlockReference
  2
RTX_4
 10
242.954208374023
 20
30.509088516235
 30
0.0
 41
0.600000023842
 42
0.600000023842
 43
0.600000023842
  0
INSERT
  5
3C
100
AcDbEntity
  8
0
  6
CONTINUOUS
 62
           7
100
AcDbBlockReference
  2
SDX_5
 10
226.711166381836
 20
56.528713226318
 30
0.0
 41
0.600000023842
 42
0.600000023842
 43
0.600000023842
  0
INSERT
  5
3D
100
AcDbEntity
  8
0
  6
CONTINUOUS
 62
           7
100
AcDbBlockReference
  2
PLANT_6
 10
248.795684814453
 20
5.357915401459
 30
0.0
 41
0.5
 42
0.5
 43
0.5
  0
INSERT
  5
3E
100
AcDbEntity
  8
0
  6
CONTINUOUS
 62
           7
100
AcDbBlockReference
  2
TB4C_7
 10
55.010089874268
 20
52.228092193604
 30
0.0
  0
INSERT
  5
3F
100
AcDbEntity
  8
0
  6
CONTINUOUS
 62
           7
100
AcDbBlockReference
  2
TB4C_8
 10
6.516304969788
 20
52.228092193604
 30
0.0
  0
INSERT
  5
40
100
AcDbEntity
  8
0
  6
CONTINUOUS
 62
           7
100
AcDbBlockReference
  2
SUPPLY_9
 10
105.666053771973
 20
123.114593505859
 30
0.0
  0
INSERT
  5
41
100
AcDbEntity
  8
0
  6
CONTINUOUS
 62
           7
100
AcDbBlockReference
  2
TERMINAL_10
 10
32.078006744385
 20
124.587356567383
 30
0.0
 41
1.179999947548
 42
1.179999947548
 43
1.179999947548
  0
INSERT
  5
42
100
AcDbEntity
  8
0
  6
CONTINUOUS
 62
           7
100
AcDbBlockReference
  2
TERMINAL_11
 10
49.698432922363
 20
124.587356567383
 30
0.0
 41
1.179999947548
 42
1.179999947548
 43
1.179999947548
  0
INSERT
  5
43
100
AcDbEntity
  8
0
  6
CONTINUOUS
 62
           7
100
AcDbBlockReference
  2
TERMINAL_12
 10
79.374603271484
 20
124.587356567383
 30
0.0
 41
1.179999947548
 42
1.179999947548
 43
1.179999947548
  0
INSERT
  5
44
100
AcDbEntity
  8
0
  6
CONTINUOUS
 62
           7
100
AcDbBlockReference
  2
TERMINAL_13
 10
61.754173278809
 20
124.587356567383
 30
0.0
 41
1.179999947548
 42
1.179999947548
 43
1.179999947548
  0
INSERT
  5
45
100
AcDbEntity
  8
0
  6
CONTINUOUS
 62
           7
100
AcDbBlockReference
  2
TERMINAL_14
 10
79.37459564209
 20
124.587356567383
 30
0.0
 41
1.179999947548
 42
1.179999947548
 43
1.179999947548
  0
INSERT
  5
46
100
AcDbEntity
  8
0
  6
CONTINUOUS
 62
           7
100
AcDbBlockReference
  2
TB4C_15
 10
104.876770019531
 20
52.131874084473
 30
0.0
  0
INSERT
  5
47
100
AcDbEntity
  8
0
  6
CONTINUOUS
 62
           7
100
AcDbBlockReference
  2
RES_16
 10
66.09009552002
 20
114.606986999512
 30
0.0
  0
INSERT
  5
48
100
AcDbEntity
  8
0
  6
CONTINUOUS
 62
           7
100
AcDbBlockReference
  2
PLANT_17
 10
217.321468036595
 20
5.357915401459
 30
0.0
 41
0.5
 42
0.5
 43
0.5
  0
INSERT
  5
49
100
AcDbEntity
  8
0
  6
CONTINUOUS
 62
           7
100
AcDbBlockReference
  2
MAN_18
 10
217.510850628421
 20
4.68092346868
 30
0.0
 41
0.600000023842
 42
0.600000023842
 43
0.600000023842
  0
INSERT
  5
4A
100
AcDbEntity
  8
0
  6
CONTINUOUS
 62
           7
100
AcDbBlockReference
  2
PLANT_19
 10
187.862162157682
 20
5.357915401459
 30
0.0
 41
0.5
 42
0.5
 43
0.5
  0
INSERT
  5
4B
100
AcDbEntity
  8
0
  6
CONTINUOUS
 62
           7
100
AcDbBlockReference
  2
MAN_20
 10
188.051544749508
 20
4.68092346868
 30
0.0
 41
0.600000023842
 42
0.600000023842
 43
0.600000023842
  0
INSERT
  5
4C
100
AcDbEntity
  8
0
  6
CONTINUOUS
 62
           7
100
AcDbBlockReference
  2
CABLEREQ_21
 10
125.493053184577
 20
74.296052843229
 30
0.0
 41
1.2
 42
1.2
 43
1.2
  0
LINE
  5
4D
100
AcDbEntity
  8
0
  6
CONTINUOUS
 62
          15
100
AcDbLine
 10
40.0
 20
148.0
 30
0.0
 11
56.359790802002
 21
131.458862304688
 31
0.0
  0
TEXT
  5
4E
100
AcDbEntity
  8
0
  6
CONTINUOUS
 62
          15
100
AcDbText
 10
104.498603820801
 20
170.939520299435
 30
0.0
 40
3.0
  1
CENTRAL OR REPEATER
 41
1.033333341281
  7
ROMAND
100
AcDbText
  0
LINE
  5
4F
100
AcDbEntity
  8
0
  6
CONTINUOUS
 62
          15
100
AcDbLine
 10
226.525787353516
 20
56.528713226318
 30
0.0
 11
226.525787353516
 21
27.727563858032
 31
0.0
  0
LINE
  5
50
100
AcDbEntity
  8
0
  6
CONTINUOUS
 62
          15
100
AcDbLine
 10
226.525787353516
 20
27.727563858032
 30
0.0
 11
240.104583740234
 21
27.727563858032
 31
0.0
  0
LINE
  5
51
100
AcDbEntity
  8
0
  6
CONTINUOUS
 62
          15
100
AcDbLine
 10
240.104583740234
 20
27.727563858032
 30
0.0
 11
240.104583740234
 21
30.41220664978
 31
0.0
  0
LINE
  5
52
100
AcDbEntity
  8
0
  6
CONTINUOUS
 62
          15
100
AcDbLine
 10
245.918869018555
 20
30.41220664978
 30
0.0
 11
245.918869018555
 21
22.385573501455
 31
0.0
  0
LINE
  5
53
100
AcDbEntity
  8
0
  6
CONTINUOUS
 62
          15
100
AcDbLine
 10
213.547424316406
 20
82.422233581543
 30
0.0
 11
177.288101452239
 21
46.762606617461
 31
0.0
  0
LINE
  5
54
100
AcDbEntity
  8
0
  6
CONTINUOUS
 62
          15
100
AcDbLine
 10
266.446441650391
 20
82.422233581543
 30
0.0
 11
213.547424316406
 21
82.422233581543
 31
0.0
  0
LINE
  5
55
100
AcDbEntity
  8
0
  6
CONTINUOUS
 62
          15
100
AcDbLine
 10
252.944259643555
 20
22.385573501455
 30
0.0
 11
252.944259643555
 21
18.637968063354
 31
0.0
  0
LINE
  5
56
100
AcDbEntity
  8
0
  6
CONTINUOUS
 62
          15
100
AcDbLine
 10
236.631256103516
 20
58.510238647461
 30
0.0
 11
238.493011474609
 21
58.510238647461
 31
0.0
  0
TEXT
  5
57
100
AcDbEntity
  8
0
  6
CONTINUOUS
 62
          15
100
AcDbText
 10
238.853012084961
 20
57.780006818473
 30
0.0
 40
0.72000002861
  1
SUPPLY
 41
1.049999882032
  7
GOTHICG
100
AcDbText
  0
TEXT
  5
58
100
AcDbEntity
  8
0
  6
CONTINUOUS
 62
          15
100
AcDbText
 10
238.493011474609
 20
58.860008649528
 30
0.0
 40
0.72000002861
  1
240 Vac
 41
1.049999882032
  7
GOTHICG
100
AcDbText
  0
TEXT
  5
59
100
AcDbEntity
  8
0
  6
CONTINUOUS
 62
          15
100
AcDbText
 10
248.797836303711
 20
2.503607720137
 30
0.0
 40
1.5
  1
VACUUM
 41
1.066666682561
  7
GOTHICI
100
AcDbText
  0
TEXT
  5
5A
100
AcDbEntity
  8
0
  6
CONTINUOUS
 62
          15
100
AcDbText
 10
235.631439208984
 20
40.439501971006
 30
0.0
 40
1.5
  1
PLANT ROOM
 41
1.066666682561
  7
GOTHICI
100
AcDbText
  0
TEXT
  5
5B
100
AcDbEntity
  8
0
  6
CONTINUOUS
 62
          15
100
AcDbText
 10
211.616073608398
 20
75.113070678711
 30
0.0
 40
1.5
  1
SDX-15 3 GAS CENTRAL
 41
1.066666682561
  7
GOTHICI
100
AcDbText
  0
TEXT
  5
5C
100
AcDbEntity
  8
0
  6
CONTINUOUS
 62
          15
100
AcDbText
 10
218.15022277832
 20
72.590068072081
 30
0.0
 40
1.5
  1
OR REPEATER
 41
1.066666682561
  7
GOTHICI
100
AcDbText
  0
TEXT
  5
5D
100
AcDbEntity
  8
0
  6
CONTINUOUS
 62
          15
100
AcDbText
 10
112.179092407227
 20
165.549475133419
 30
0.0
 40
3.0
  1
ALARM PANELS
 41
1.033333341281
  7
ROMAND
100
AcDbText
  0
LINE
  5
5E
100
AcDbEntity
  8
0
  6
CONTINUOUS
 62
          15
100
AcDbLine
 10
226.580963134766
 20
51.507427215576
 30
0.0
 11
240.159759521484
 21
51.507427215576
 31
0.0
  0
TEXT
  5
5F
100
AcDbEntity
  8
0
  6
CONTINUOUS
 62
          15
100
AcDbText
 10
225.362704463303
 20
36.448165880441
 30
0.0
 40
1.0
  1
2 CORE
 50
90.000002504478
 41
1.400000035763
  7
GOTHICI
100
AcDbText
  0
TEXT
  5
60
100
AcDbEntity
  8
0
  6
CONTINUOUS
 62
          15
100
AcDbText
 10
229.200729370117
 20
52.256127171218
 30
0.0
 40
1.0
  1
2 CORE
 41
1.400000035763
  7
GOTHICI
100
AcDbText
  0
LINE
  5
61
100
AcDbEntity
  8
0
  6
CONTINUOUS
 62
          15
100
AcDbLine
 10
240.159759521484
 20
51.507427215576
 30
0.0
 11
238.156494140625
 21
52.315319061279
 31
0.0
  0
LINE
  5
62
100
AcDbEntity
  8
0
  6
CONTINUOUS
 62
          15
100
AcDbLine
 10
240.159759521484
 20
51.507427215576
 30
0.0
 11
238.156494140625
 21
50.473342895508
 31
0.0
  0
TEXT
  5
63
100
AcDbEntity
  8
0
  6
CONTINUOUS
 62
          15
100
AcDbText
 10
32.838432312012
 20
164.587572664022
 30
0.0
 40
2.700000047684
  1
SDX-15
 41
0.962962954787
  7
GOTHICI
100
AcDbText
  0
TEXT
  5
64
100
AcDbEntity
  8
0
  6
CONTINUOUS
 62
          15
100
AcDbText
 10
32.729515075684
 20
159.357378572226
 30
0.0
 40
2.700000047684
  1
REMOTE
 41
0.962962954787
  7
GOTHICI
100
AcDbText
  0
TEXT
  5
65
100
AcDbEntity
  8
0
  6
CONTINUOUS
 62
          15
100
AcDbText
 10
26.412338256836
 20
154.56303653121
 30
0.0
 40
2.700000047684
  1
TRANSMITTER
 41
0.962962954787
  7
GOTHICI
100
AcDbText
  0
LINE
  5
66
100
AcDbEntity
  8
0
  6
CONTINUOUS
 62
          15
100
AcDbLine
 10
75.82169342041
 20
20.506488800049
 30
0.0
 11
77.82169342041
 21
20.506488800049
 31
0.0
  0
LINE
  5
67
100
AcDbEntity
  8
0
  6
CONTINUOUS
 62
          15
100
AcDbLine
 10
68.422386169434
 20
20.506488800049
 30
0.0
 11
70.82169342041
 21
20.506488800049
 31
0.0
  0
LINE
  5
68
100
AcDbEntity
  8
0
  6
CONTINUOUS
 62
          15
100
AcDbLine
 10
66.14094543457
 20
20.506488800049
 30
0.0
 11
68.422386169434
 21
20.506488800049
 31
0.0
  0
LINE
  5
69
100
AcDbEntity
  8
0
  6
CONTINUOUS
 62
          15
100
AcDbLine
 10
75.82169342041
 20
20.506488800049
 30
0.0
 11
75.82169342041
 21
22.506488800049
 31
0.0
  0
LINE
  5
6A
100
AcDbEntity
  8
0
  6
CONTINUOUS
 62
          15
100
AcDbLine
 10
70.82169342041
 20
20.506488800049
 30
0.0
 11
76.32169342041
 21
22.506488800049
 31
0.0
  0
LINE
  5
6B
100
AcDbEntity
  8
0
  6
CONTINUOUS
 62
          15
100
AcDbLine
 10
77.82169342041
 20
20.506488800049
 30
0.0
 11
90.166320800781
 21
20.506488800049
 31
0.0
  0
LINE
  5
6C
100
AcDbEntity
  8
0
  6
CONTINUOUS
 62
          15
100
AcDbLine
 10
66.14094543457
 20
20.506488800049
 30
0.0
 11
66.14094543457
 21
31.163875579834
 31
0.0
  0
LINE
  5
6D
100
AcDbEntity
  8
0
  6
CONTINUOUS
 62
          15
100
AcDbLine
 10
25.0
 20
115.436447143555
 30
0.0
 11
25.0
 21
134.302291870117
 31
0.0
  0
LINE
  5
6E
100
AcDbEntity
  8
0
  6
CONTINUOUS
 62
          15
100
AcDbLine
 10
114.065093994141
 20
134.625839233398
 30
0.0
 11
114.065093994141
 21
115.436447143555
 31
0.0
  0
LINE
  5
6F
100
AcDbEntity
  8
0
  6
CONTINUOUS
 62
          15
100
AcDbLine
 10
114.065093994141
 20
115.436447143555
 30
0.0
 11
25.0
 21
115.436447143555
 31
0.0
  0
LINE
  5
70
100
AcDbEntity
  8
0
  6
CONTINUOUS
 62
          15
100
AcDbLine
 10
104.057495117188
 20
136.861343383789
 30
0.0
 11
100.247497558594
 21
136.861343383789
 31
0.0
  0
LINE
  5
71
100
AcDbEntity
  8
0
  6
CONTINUOUS
 62
          15
100
AcDbLine
 10
100.247497558594
 20
138.006393432617
 30
0.0
 11
100.247497558594
 21
136.861343383789
 31
0.0
  0
CIRCLE
  5
72
100
AcDbEntity
  8
0
  6
CONTINUOUS
 62
          15
100
AcDbCircle
 10
82.950103759766
 20
139.88395690918
 30
0.0
 40
0.165100008249
  0
LINE
  5
73
100
AcDbEntity
  8
0
  6
CONTINUOUS
 62
          15
100
AcDbLine
 10
28.809997558594
 20
130.206527709961
 30
0.0
 11
28.809997558594
 21
130.524032592773
 31
0.0
  0
LINE
  5
74
100
AcDbEntity
  8
0
  6
CONTINUOUS
 62
          15
100
AcDbLine
 10
28.809997558594
 20
134.803939819336
 30
0.0
 11
28.809997558594
 21
134.486434936523
 31
0.0
  0
LINE
  5
75
100
AcDbEntity
  8
0
  6
CONTINUOUS
 62
          15
100
AcDbLine
 10
29.444999694824
 20
130.524032592773
 30
0.0
 11
29.444999694824
 21
134.499130249023
 31
0.0
  0
LINE
  5
76
100
AcDbEntity
  8
0
  6
CONTINUOUS
 62
          15
100
AcDbLine
 10
29.444999694824
 20
130.524032592773
 30
0.0
 11
28.175003051758
 21
130.524032592773
 31
0.0
  0
LINE
  5
77
100
AcDbEntity
  8
0
  6
CONTINUOUS
 62
          15
100
AcDbLine
 10
28.175003051758
 20
134.499130249023
 30
0.0
 11
28.175003051758
 21
130.524032592773
 31
0.0
  0
LINE
  5
78
100
AcDbEntity
  8
0
  6
CONTINUOUS
 62
          15
100
AcDbLine
 10
28.175003051758
 20
134.499130249023
 30
0.0
 11
29.444999694824
 21
134.499130249023
 31
0.0
  0
LINE
  5
79
100
AcDbEntity
  8
0
  6
CONTINUOUS
 62
          15
100
AcDbLine
 10
31.349998474121
 20
130.206527709961
 30
0.0
 11
31.349998474121
 21
130.524032592773
 31
0.0
  0
LINE
  5
7A
100
AcDbEntity
  8
0
  6
CONTINUOUS
 62
          15
100
AcDbLine
 10
31.349998474121
 20
134.803939819336
 30
0.0
 11
31.349998474121
 21
134.486434936523
 31
0.0
  0
LINE
  5
7B
100
AcDbEntity
  8
0
  6
CONTINUOUS
 62
          15
100
AcDbLine
 10
31.985000610352
 20
130.524032592773
 30
0.0
 11
31.985000610352
 21
134.499130249023
 31
0.0
  0
LINE
  5
7C
100
AcDbEntity
  8
0
  6
CONTINUOUS
 62
          15
100
AcDbLine
 10
31.985000610352
 20
130.524032592773
 30
0.0
 11
30.715003967285
 21
130.524032592773
 31
0.0
  0
LINE
  5
7D
100
AcDbEntity
  8
0
  6
CONTINUOUS
 62
          15
100
AcDbLine
 10
30.715003967285
 20
134.499130249023
 30
0.0
 11
30.715003967285
 21
130.524032592773
 31
0.0
  0
LINE
  5
7E
100
AcDbEntity
  8
0
  6
CONTINUOUS
 62
          15
100
AcDbLine
 10
30.715003967285
 20
134.499130249023
 30
0.0
 11
31.985000610352
 21
134.499130249023
 31
0.0
  0
LINE
  5
7F
100
AcDbEntity
  8
0
  6
CONTINUOUS
 62
          15
100
AcDbLine
 10
33.889999389648
 20
130.206527709961
 30
0.0
 11
33.889999389648
 21
130.524032592773
 31
0.0
  0
LINE
  5
80
100
AcDbEntity
  8
0
  6
CONTINUOUS
 62
          15
100
AcDbLine
 10
33.889999389648
 20
134.803939819336
 30
0.0
 11
33.889999389648
 21
134.486434936523
 31
0.0
  0
LINE
  5
81
100
AcDbEntity
  8
0
  6
CONTINUOUS
 62
          15
100
AcDbLine
 10
34.525001525879
 20
130.524032592773
 30
0.0
 11
34.525001525879
 21
134.499130249023
 31
0.0
  0
LINE
  5
82
100
AcDbEntity
  8
0
  6
CONTINUOUS
 62
          15
100
AcDbLine
 10
34.525001525879
 20
130.524032592773
 30
0.0
 11
33.255004882813
 21
130.524032592773
 31
0.0
  0
LINE
  5
83
100
AcDbEntity
  8
0
  6
CONTINUOUS
 62
          15
100
AcDbLine
 10
33.255004882813
 20
134.499130249023
 30
0.0
 11
33.255004882813
 21
130.524032592773
 31
0.0
  0
LINE
  5
84
100
AcDbEntity
  8
0
  6
CONTINUOUS
 62
          15
100
AcDbLine
 10
33.255004882813
 20
134.499130249023
 30
0.0
 11
34.525001525879
 21
134.499130249023
 31
0.0
  0
LINE
  5
85
100
AcDbEntity
  8
0
  6
CONTINUOUS
 62
          15
100
AcDbLine
 10
36.430000305176
 20
130.206527709961
 30
0.0
 11
36.430000305176
 21
130.524032592773
 31
0.0
  0
LINE
  5
86
100
AcDbEntity
  8
0
  6
CONTINUOUS
 62
          15
100
AcDbLine
 10
36.430000305176
 20
134.803939819336
 30
0.0
 11
36.430000305176
 21
134.486434936523
 31
0.0
  0
LINE
  5
87
100
AcDbEntity
  8
0
  6
CONTINUOUS
 62
          15
100
AcDbLine
 10
37.065002441406
 20
130.524032592773
 30
0.0
 11
37.065002441406
 21
134.499130249023
 31
0.0
  0
LINE
  5
88
100
AcDbEntity
  8
0
  6
CONTINUOUS
 62
          15
100
AcDbLine
 10
37.065002441406
 20
130.524032592773
 30
0.0
 11
35.794998168945
 21
130.524032592773
 31
0.0
  0
LINE
  5
89
100
AcDbEntity
  8
0
  6
CONTINUOUS
 62
          15
100
AcDbLine
 10
35.794998168945
 20
134.499130249023
 30
0.0
 11
35.794998168945
 21
130.524032592773
 31
0.0
  0
LINE
  5
8A
100
AcDbEntity
  8
0
  6
CONTINUOUS
 62
          15
100
AcDbLine
 10
35.794998168945
 20
134.499130249023
 30
0.0
 11
37.065002441406
 21
134.499130249023
 31
0.0
  0
LINE
  5
8B
100
AcDbEntity
  8
0
  6
CONTINUOUS
 62
          15
100
AcDbLine
 10
41.509994506836
 20
130.206527709961
 30
0.0
 11
41.509994506836
 21
130.524032592773
 31
0.0
  0
LINE
  5
8C
100
AcDbEntity
  8
0
  6
CONTINUOUS
 62
          15
100
AcDbLine
 10
41.509994506836
 20
134.803939819336
 30
0.0
 11
41.509994506836
 21
134.486434936523
 31
0.0
  0
LINE
  5
8D
100
AcDbEntity
  8
0
  6
CONTINUOUS
 62
          15
100
AcDbLine
 10
42.145004272461
 20
130.524032592773
 30
0.0
 11
42.145004272461
 21
134.499130249023
 31
0.0
  0
LINE
  5
8E
100
AcDbEntity
  8
0
  6
CONTINUOUS
 62
          15
100
AcDbLine
 10
42.145004272461
 20
130.524032592773
 30
0.0
 11
40.875
 21
130.524032592773
 31
0.0
  0
LINE
  5
8F
100
AcDbEntity
  8
0
  6
CONTINUOUS
 62
          15
100
AcDbLine
 10
40.875
 20
134.499130249023
 30
0.0
 11
40.875
 21
130.524032592773
 31
0.0
  0
LINE
  5
90
100
AcDbEntity
  8
0
  6
CONTINUOUS
 62
          15
100
AcDbLine
 10
40.875
 20
134.499130249023
 30
0.0
 11
42.145004272461
 21
134.499130249023
 31
0.0
  0
LINE
  5
91
100
AcDbEntity
  8
0
  6
CONTINUOUS
 62
          15
100
AcDbLine
 10
44.050003051758
 20
130.206527709961
 30
0.0
 11
44.050003051758
 21
130.524032592773
 31
0.0
  0
LINE
  5
92
100
AcDbEntity
  8
0
  6
CONTINUOUS
 62
          15
100
AcDbLine
 10
44.050003051758
 20
134.803939819336
 30
0.0
 11
44.050003051758
 21
134.486434936523
 31
0.0
  0
LINE
  5
93
100
AcDbEntity
  8
0
  6
CONTINUOUS
 62
          15
100
AcDbLine
 10
44.684997558594
 20
130.524032592773
 30
0.0
 11
44.684997558594
 21
134.499130249023
 31
0.0
  0
LINE
  5
94
100
AcDbEntity
  8
0
  6
CONTINUOUS
 62
          15
100
AcDbLine
 10
44.684997558594
 20
130.524032592773
 30
0.0
 11
43.415000915527
 21
130.524032592773
 31
0.0
  0
LINE
  5
95
100
AcDbEntity
  8
0
  6
CONTINUOUS
 62
          15
100
AcDbLine
 10
43.415000915527
 20
134.499130249023
 30
0.0
 11
43.415000915527
 21
130.524032592773
 31
0.0
  0
LINE
  5
96
100
AcDbEntity
  8
0
  6
CONTINUOUS
 62
          15
100
AcDbLine
 10
43.415000915527
 20
134.499130249023
 30
0.0
 11
44.684997558594
 21
134.499130249023
 31
0.0
  0
LINE
  5
97
100
AcDbEntity
  8
0
  6
CONTINUOUS
 62
          15
100
AcDbLine
 10
46.589996337891
 20
130.206527709961
 30
0.0
 11
46.589996337891
 21
130.524032592773
 31
0.0
  0
LINE
  5
98
100
AcDbEntity
  8
0
  6
CONTINUOUS
 62
          15
100
AcDbLine
 10
46.589996337891
 20
134.803939819336
 30
0.0
 11
46.589996337891
 21
134.486434936523
 31
0.0
  0
LINE
  5
99
100
AcDbEntity
  8
0
  6
CONTINUOUS
 62
          15
100
AcDbLine
 10
47.225006103516
 20
130.524032592773
 30
0.0
 11
47.225006103516
 21
134.499130249023
 31
0.0
  0
LINE
  5
9A
100
AcDbEntity
  8
0
  6
CONTINUOUS
 62
          15
100
AcDbLine
 10
47.225006103516
 20
130.524032592773
 30
0.0
 11
45.955001831055
 21
130.524032592773
 31
0.0
  0
LINE
  5
9B
100
AcDbEntity
  8
0
  6
CONTINUOUS
 62
          15
100
AcDbLine
 10
45.955001831055
 20
134.499130249023
 30
0.0
 11
45.955001831055
 21
130.524032592773
 31
0.0
  0
LINE
  5
9C
100
AcDbEntity
  8
0
  6
CONTINUOUS
 62
          15
100
AcDbLine
 10
45.955001831055
 20
134.499130249023
 30
0.0
 11
47.225006103516
 21
134.499130249023
 31
0.0
  0
LINE
  5
9D
100
AcDbEntity
  8
0
  6
CONTINUOUS
 62
          15
100
AcDbLine
 10
49.130004882813
 20
130.206527709961
 30
0.0
 11
49.130004882813
 21
130.524032592773
 31
0.0
  0
LINE
  5
9E
100
AcDbEntity
  8
0
  6
CONTINUOUS
 62
          15
100
AcDbLine
 10
49.130004882813
 20
134.803939819336
 30
0.0
 11
49.130004882813
 21
134.486434936523
 31
0.0
  0
LINE
  5
9F
100
AcDbEntity
  8
0
  6
CONTINUOUS
 62
          15
100
AcDbLine
 10
49.764999389648
 20
130.524032592773
 30
0.0
 11
49.764999389648
 21
134.499130249023
 31
0.0
  0
LINE
  5
A0
100
AcDbEntity
  8
0
  6
CONTINUOUS
 62
          15
100
AcDbLine
 10
49.764999389648
 20
130.524032592773
 30
0.0
 11
48.495002746582
 21
130.524032592773
 31
0.0
  0
LINE
  5
A1
100
AcDbEntity
  8
0
  6
CONTINUOUS
 62
          15
100
AcDbLine
 10
48.495002746582
 20
134.499130249023
 30
0.0
 11
48.495002746582
 21
130.524032592773
 31
0.0
  0
LINE
  5
A2
100
AcDbEntity
  8
0
  6
CONTINUOUS
 62
          15
100
AcDbLine
 10
48.495002746582
 20
134.499130249023
 30
0.0
 11
49.764999389648
 21
134.499130249023
 31
0.0
  0
LINE
  5
A3
100
AcDbEntity
  8
0
  6
CONTINUOUS
 62
          15
100
AcDbLine
 10
58.020004272461
 20
130.206527709961
 30
0.0
 11
58.020004272461
 21
130.524032592773
 31
0.0
  0
LINE
  5
A4
100
AcDbEntity
  8
0
  6
CONTINUOUS
 62
          15
100
AcDbLine
 10
58.020004272461
 20
134.803939819336
 30
0.0
 11
58.020004272461
 21
134.486434936523
 31
0.0
  0
LINE
  5
A5
100
AcDbEntity
  8
0
  6
CONTINUOUS
 62
          15
100
AcDbLine
 10
58.654998779297
 20
130.524032592773
 30
0.0
 11
58.654998779297
 21
134.499130249023
 31
0.0
  0
LINE
  5
A6
100
AcDbEntity
  8
0
  6
CONTINUOUS
 62
          15
100
AcDbLine
 10
58.654998779297
 20
130.524032592773
 30
0.0
 11
57.38500213623
 21
130.524032592773
 31
0.0
  0
LINE
  5
A7
100
AcDbEntity
  8
0
  6
CONTINUOUS
 62
          15
100
AcDbLine
 10
57.38500213623
 20
134.499130249023
 30
0.0
 11
57.38500213623
 21
130.524032592773
 31
0.0
  0
LINE
  5
A8
100
AcDbEntity
  8
0
  6
CONTINUOUS
 62
          15
100
AcDbLine
 10
57.38500213623
 20
134.499130249023
 30
0.0
 11
58.654998779297
 21
134.499130249023
 31
0.0
  0
LINE
  5
A9
100
AcDbEntity
  8
0
  6
CONTINUOUS
 62
          15
100
AcDbLine
 10
60.559997558594
 20
130.206527709961
 30
0.0
 11
60.559997558594
 21
130.524032592773
 31
0.0
  0
LINE
  5
AA
100
AcDbEntity
  8
0
  6
CONTINUOUS
 62
          15
100
AcDbLine
 10
60.559997558594
 20
134.803939819336
 30
0.0
 11
60.559997558594
 21
134.486434936523
 31
0.0
  0
LINE
  5
AB
100
AcDbEntity
  8
0
  6
CONTINUOUS
 62
          15
100
AcDbLine
 10
61.194999694824
 20
130.524032592773
 30
0.0
 11
61.194999694824
 21
134.499130249023
 31
0.0
  0
LINE
  5
AC
100
AcDbEntity
  8
0
  6
CONTINUOUS
 62
          15
100
AcDbLine
 10
61.194999694824
 20
130.524032592773
 30
0.0
 11
59.925003051758
 21
130.524032592773
 31
0.0
  0
LINE
  5
AD
100
AcDbEntity
  8
0
  6
CONTINUOUS
 62
          15
100
AcDbLine
 10
59.925003051758
 20
134.499130249023
 30
0.0
 11
59.925003051758
 21
130.524032592773
 31
0.0
  0
LINE
  5
AE
100
AcDbEntity
  8
0
  6
CONTINUOUS
 62
          15
100
AcDbLine
 10
59.925003051758
 20
134.499130249023
 30
0.0
 11
61.194999694824
 21
134.499130249023
 31
0.0
  0
LINE
  5
AF
100
AcDbEntity
  8
0
  6
CONTINUOUS
 62
          15
100
AcDbLine
 10
63.100006103516
 20
130.206527709961
 30
0.0
 11
63.100006103516
 21
130.524032592773
 31
0.0
  0
LINE
  5
B0
100
AcDbEntity
  8
0
  6
CONTINUOUS
 62
          15
100
AcDbLine
 10
63.100006103516
 20
134.803939819336
 30
0.0
 11
63.100006103516
 21
134.486434936523
 31
0.0
  0
LINE
  5
B1
100
AcDbEntity
  8
0
  6
CONTINUOUS
 62
          15
100
AcDbLine
 10
63.735000610352
 20
130.524032592773
 30
0.0
 11
63.735000610352
 21
134.499130249023
 31
0.0
  0
LINE
  5
B2
100
AcDbEntity
  8
0
  6
CONTINUOUS
 62
          15
100
AcDbLine
 10
63.735000610352
 20
130.524032592773
 30
0.0
 11
62.464996337891
 21
130.524032592773
 31
0.0
  0
LINE
  5
B3
100
AcDbEntity
  8
0
  6
CONTINUOUS
 62
          15
100
AcDbLine
 10
62.464996337891
 20
134.499130249023
 30
0.0
 11
62.464996337891
 21
130.524032592773
 31
0.0
  0
LINE
  5
B4
100
AcDbEntity
  8
0
  6
CONTINUOUS
 62
          15
100
AcDbLine
 10
62.464996337891
 20
134.499130249023
 30
0.0
 11
63.735000610352
 21
134.499130249023
 31
0.0
  0
LINE
  5
B5
100
AcDbEntity
  8
0
  6
CONTINUOUS
 62
          15
100
AcDbLine
 10
65.639999389648
 20
130.206527709961
 30
0.0
 11
65.639999389648
 21
130.524032592773
 31
0.0
  0
LINE
  5
B6
100
AcDbEntity
  8
0
  6
CONTINUOUS
 62
          15
100
AcDbLine
 10
65.639999389648
 20
134.803939819336
 30
0.0
 11
65.639999389648
 21
134.486434936523
 31
0.0
  0
LINE
  5
B7
100
AcDbEntity
  8
0
  6
CONTINUOUS
 62
          15
100
AcDbLine
 10
66.275001525879
 20
130.524032592773
 30
0.0
 11
66.275001525879
 21
134.499130249023
 31
0.0
  0
LINE
  5
B8
100
AcDbEntity
  8
0
  6
CONTINUOUS
 62
          15
100
AcDbLine
 10
66.275001525879
 20
130.524032592773
 30
0.0
 11
65.005004882813
 21
130.524032592773
 31
0.0
  0
LINE
  5
B9
100
AcDbEntity
  8
0
  6
CONTINUOUS
 62
          15
100
AcDbLine
 10
65.005004882813
 20
134.499130249023
 30
0.0
 11
65.005004882813
 21
130.524032592773
 31
0.0
  0
LINE
  5
BA
100
AcDbEntity
  8
0
  6
CONTINUOUS
 62
          15
100
AcDbLine
 10
65.005004882813
 20
134.499130249023
 30
0.0
 11
66.275001525879
 21
134.499130249023
 31
0.0
  0
LINE
  5
BB
100
AcDbEntity
  8
0
  6
CONTINUOUS
 62
          15
100
AcDbLine
 10
70.720001220703
 20
130.206527709961
 30
0.0
 11
70.720001220703
 21
130.524032592773
 31
0.0
  0
LINE
  5
BC
100
AcDbEntity
  8
0
  6
CONTINUOUS
 62
          15
100
AcDbLine
 10
70.720001220703
 20
134.803939819336
 30
0.0
 11
70.720001220703
 21
134.486434936523
 31
0.0
  0
LINE
  5
BD
100
AcDbEntity
  8
0
  6
CONTINUOUS
 62
          15
100
AcDbLine
 10
71.354995727539
 20
130.524032592773
 30
0.0
 11
71.354995727539
 21
134.499130249023
 31
0.0
  0
LINE
  5
BE
100
AcDbEntity
  8
0
  6
CONTINUOUS
 62
          15
100
AcDbLine
 10
71.354995727539
 20
130.524032592773
 30
0.0
 11
70.084991455078
 21
130.524032592773
 31
0.0
  0
LINE
  5
BF
100
AcDbEntity
  8
0
  6
CONTINUOUS
 62
          15
100
AcDbLine
 10
70.084991455078
 20
134.499130249023
 30
0.0
 11
70.084991455078
 21
130.524032592773
 31
0.0
  0
LINE
  5
C0
100
AcDbEntity
  8
0
  6
CONTINUOUS
 62
          15
100
AcDbLine
 10
70.084991455078
 20
134.499130249023
 30
0.0
 11
71.354995727539
 21
134.499130249023
 31
0.0
  0
LINE
  5
C1
100
AcDbEntity
  8
0
  6
CONTINUOUS
 62
          15
100
AcDbLine
 10
73.259994506836
 20
130.206527709961
 30
0.0
 11
73.259994506836
 21
130.524032592773
 31
0.0
  0
LINE
  5
C2
100
AcDbEntity
  8
0
  6
CONTINUOUS
 62
          15
100
AcDbLine
 10
73.259994506836
 20
134.803939819336
 30
0.0
 11
73.259994506836
 21
134.486434936523
 31
0.0
  0
LINE
  5
C3
100
AcDbEntity
  8
0
  6
CONTINUOUS
 62
          15
100
AcDbLine
 10
73.895004272461
 20
130.524032592773
 30
0.0
 11
73.895004272461
 21
134.499130249023
 31
0.0
  0
LINE
  5
C4
100
AcDbEntity
  8
0
  6
CONTINUOUS
 62
          15
100
AcDbLine
 10
73.895004272461
 20
130.524032592773
 30
0.0
 11
72.625
 21
130.524032592773
 31
0.0
  0
LINE
  5
C5
100
AcDbEntity
  8
0
  6
CONTINUOUS
 62
          15
100
AcDbLine
 10
72.625
 20
134.499130249023
 30
0.0
 11
72.625
 21
130.524032592773
 31
0.0
  0
LINE
  5
C6
100
AcDbEntity
  8
0
  6
CONTINUOUS
 62
          15
100
AcDbLine
 10
72.625
 20
134.499130249023
 30
0.0
 11
73.895004272461
 21
134.499130249023
 31
0.0
  0
LINE
  5
C7
100
AcDbEntity
  8
0
  6
CONTINUOUS
 62
          15
100
AcDbLine
 10
75.800003051758
 20
130.206527709961
 30
0.0
 11
75.800003051758
 21
130.524032592773
 31
0.0
  0
LINE
  5
C8
100
AcDbEntity
  8
0
  6
CONTINUOUS
 62
          15
100
AcDbLine
 10
75.800003051758
 20
134.803939819336
 30
0.0
 11
75.800003051758
 21
134.486434936523
 31
0.0
  0
LINE
  5
C9
100
AcDbEntity
  8
0
  6
CONTINUOUS
 62
          15
100
AcDbLine
 10
76.434997558594
 20
130.524032592773
 30
0.0
 11
76.434997558594
 21
134.499130249023
 31
0.0
  0
LINE
  5
CA
100
AcDbEntity
  8
0
  6
CONTINUOUS
 62
          15
100
AcDbLine
 10
76.434997558594
 20
130.524032592773
 30
0.0
 11
75.164993286133
 21
130.524032592773
 31
0.0
  0
LINE
  5
CB
100
AcDbEntity
  8
0
  6
CONTINUOUS
 62
          15
100
AcDbLine
 10
75.164993286133
 20
134.499130249023
 30
0.0
 11
75.164993286133
 21
130.524032592773
 31
0.0
  0
LINE
  5
CC
100
AcDbEntity
  8
0
  6
CONTINUOUS
 62
          15
100
AcDbLine
 10
75.164993286133
 20
134.499130249023
 30
0.0
 11
76.434997558594
 21
134.499130249023
 31
0.0
  0
LINE
  5
CD
100
AcDbEntity
  8
0
  6
CONTINUOUS
 62
          15
100
AcDbLine
 10
78.339996337891
 20
130.206527709961
 30
0.0
 11
78.339996337891
 21
130.524032592773
 31
0.0
  0
LINE
  5
CE
100
AcDbEntity
  8
0
  6
CONTINUOUS
 62
          15
100
AcDbLine
 10
78.339996337891
 20
134.803939819336
 30
0.0
 11
78.339996337891
 21
134.486434936523
 31
0.0
  0
LINE
  5
CF
100
AcDbEntity
  8
0
  6
CONTINUOUS
 62
          15
100
AcDbLine
 10
78.975006103516
 20
130.524032592773
 30
0.0
 11
78.975006103516
 21
134.499130249023
 31
0.0
  0
LINE
  5
D0
100
AcDbEntity
  8
0
  6
CONTINUOUS
 62
          15
100
AcDbLine
 10
78.975006103516
 20
130.524032592773
 30
0.0
 11
77.705001831055
 21
130.524032592773
 31
0.0
  0
LINE
  5
D1
100
AcDbEntity
  8
0
  6
CONTINUOUS
 62
          15
100
AcDbLine
 10
77.705001831055
 20
134.499130249023
 30
0.0
 11
77.705001831055
 21
130.524032592773
 31
0.0
  0
LINE
  5
D2
100
AcDbEntity
  8
0
  6
CONTINUOUS
 62
          15
100
AcDbLine
 10
77.705001831055
 20
134.499130249023
 30
0.0
 11
78.975006103516
 21
134.499130249023
 31
0.0
  0
LINE
  5
D3
100
AcDbEntity
  8
0
  6
CONTINUOUS
 62
          15
100
AcDbLine
 10
109.455001831055
 20
124.643966674805
 30
0.0
 11
112.630004882813
 21
124.643966674805
 31
0.0
  0
LINE
  5
D4
100
AcDbEntity
  8
0
  6
CONTINUOUS
 62
          15
100
AcDbLine
 10
98.812408447266
 20
124.643966674805
 30
0.0
 11
101.987396240234
 21
124.643966674805
 31
0.0
  0
LINE
  5
D5
100
AcDbEntity
  8
0
  6
CONTINUOUS
 62
          15
100
AcDbLine
 10
98.812408447266
 20
124.643966674805
 30
0.0
 11
98.812408447266
 21
138.249160766602
 31
0.0
  0
LINE
  5
D6
100
AcDbEntity
  8
0
  6
CONTINUOUS
 62
          15
100
AcDbLine
 10
112.630004882813
 20
135.091384887695
 30
0.0
 11
112.630004882813
 21
124.643966674805
 31
0.0
  0
ARC
  5
D7
100
AcDbEntity
  8
0
  6
CONTINUOUS
 62
          15
100
AcDbCircle
 10
105.645004272461
 20
124.00895690918
 30
0.0
 40
4.927599906921
100
AcDbArc
 50
224.999999658377
 51
314.99999874776
  0
LINE
  5
D8
100
AcDbEntity
  8
0
  6
CONTINUOUS
 62
          15
100
AcDbLine
 10
109.455001831055
 20
123.856552124023
 30
0.0
 11
113.430099487305
 21
123.856552124023
 31
0.0
  0
LINE
  5
D9
100
AcDbEntity
  8
0
  6
CONTINUOUS
 62
          15
100
AcDbLine
 10
98.024993896484
 20
123.856552124023
 30
0.0
 11
101.987396240234
 21
123.856552124023
 31
0.0
  0
LINE
  5
DA
100
AcDbEntity
  8
0
  6
CONTINUOUS
 62
          15
100
AcDbLine
 10
98.024993896484
 20
123.856552124023
 30
0.0
 11
98.024993896484
 21
138.375686645508
 31
0.0
  0
LINE
  5
DB
100
AcDbEntity
  8
0
  6
CONTINUOUS
 62
          15
100
AcDbLine
 10
113.430099487305
 20
134.836227416992
 30
0.0
 11
113.430099487305
 21
123.856552124023
 31
0.0
  0
ARC
  5
DC
100
AcDbEntity
  8
0
  6
CONTINUOUS
 62
          15
100
AcDbCircle
 10
93.732406616211
 20
114.318832397461
 30
0.0
 40
10.477499961853
100
AcDbArc
 50
36.249999585792
 51
65.750003252616
  0
ARC
  5
DD
100
AcDbEntity
  8
0
  6
CONTINUOUS
 62
          15
100
AcDbCircle
 10
117.392501831055
 20
114.318832397461
 30
0.0
 40
10.325099945068
100
AcDbArc
 50
112.499998007956
 51
142.999996010783
  0
ELLIPSE
  5
DE
100
AcDbEntity
  8
0
  6
CONTINUOUS
 62
          15
100
AcDbEllipse
 10
70.0
 20
124.186447143555
 30
0.0
 11
57.5
 21
0.0
 31
0.0
210
0.0
220
0.0
230
1.0
 40
0.282608695652
 41
0.0
 42
6.2831853071795862
  0
TEXT
  5
DF
100
AcDbEntity
  8
0
  6
CONTINUOUS
 62
          15
100
AcDbText
 10
183.406921386719
 20
96.958811968565
 30
0.0
 40
1.5
  1
TO OTHER SDX-15
 41
1.066666682561
  7
GOTHICI
100
AcDbText
  0
TEXT
  5
E0
100
AcDbEntity
  8
0
  6
CONTINUOUS
 62
          15
100
AcDbText
 10
120.700706481934
 20
110.846493534744
 30
0.0
 40
1.0
  1
NEUTRAL
 41
1.000000014901
  7
GOTHICG
100
AcDbText
  0
TEXT
  5
E1
100
AcDbEntity
  8
0
  6
CONTINUOUS
 62
          15
100
AcDbText
 10
120.669960021973
 20
113.21732788533
 30
0.0
 40
1.0
  1
EARTH
 41
1.000000014901
  7
GOTHICG
100
AcDbText
  0
TEXT
  5
E2
100
AcDbEntity
  8
0
  6
CONTINUOUS
 62
          15
100
AcDbText
 10
120.595397949219
 20
115.438969425857
 30
0.0
 40
1.0
  1
LIVE
 41
1.000000014901
  7
GOTHICG
100
AcDbText
  0
TEXT
  5
E3
100
AcDbEntity
  8
0
  6
CONTINUOUS
 62
          15
100
AcDbText
 10
127.880599975586
 20
112.612843327224
 30
0.0
 40
1.0
  1
FUSED AT 3 AMPS
 41
1.000000014901
  7
GOTHICG
100
AcDbText
  0
TEXT
  5
E4
100
AcDbEntity
  8
0
  6
CONTINUOUS
 62
          15
100
AcDbText
 10
128.240356445313
 20
114.772244267166
 30
0.0
 40
1.0
  1
240 Vac SUPPLY
 41
1.000000014901
  7
GOTHICG
100
AcDbText
  0
LINE
  5
E5
100
AcDbEntity
  8
0
  6
CONTINUOUS
 62
          15
100
AcDbLine
 10
25.868246078491
 20
120.480834960938
 30
0.0
 11
40.766227722168
 21
120.480834960938
 31
0.0
  0
TEXT
  5
E6
100
AcDbEntity
  8
0
  6
CONTINUOUS
 62
          15
100
AcDbText
 10
30.213041305542
 20
118.607556864619
 30
0.0
 40
1.078992009163
  1
1
  7
TXT
100
AcDbText
  0
TEXT
  5
E7
100
AcDbEntity
  8
0
  6
CONTINUOUS
 62
          15
100
AcDbText
 10
33.015422821045
 20
118.607556864619
 30
0.0
 40
1.078992009163
  1
2
  7
TXT
100
AcDbText
  0
TEXT
  5
E8
100
AcDbEntity
  8
0
  6
CONTINUOUS
 62
          15
100
AcDbText
 10
36.012626647949
 20
118.607556864619
 30
0.0
 40
1.078992009163
  1
3
  7
TXT
100
AcDbText
  0
TEXT
  5
E9
100
AcDbEntity
  8
0
  6
CONTINUOUS
 62
          15
100
AcDbText
 10
39.009819030762
 20
118.607556864619
 30
0.0
 40
1.078992009163
  1
4
  7
TXT
100
AcDbText
  0
LINE
  5
EA
100
AcDbEntity
  8
0
  6
CONTINUOUS
 62
          15
100
AcDbLine
 10
40.766227722168
 20
120.470321655273
 30
0.0
 11
40.766227722168
 21
128.712600708008
 31
0.0
  0
LINE
  5
EB
100
AcDbEntity
  8
0
  6
CONTINUOUS
 62
          15
100
AcDbLine
 10
30.020221710205
 20
123.803100585938
 30
0.0
 11
31.191650390625
 21
123.803100585938
 31
0.0
  0
LINE
  5
EC
100
AcDbEntity
  8
0
  6
CONTINUOUS
 62
          15
100
AcDbLine
 10
31.191650390625
 20
123.803100585938
 30
0.0
 11
31.191650390625
 21
121.7255859375
 31
0.0
  0
LINE
  5
ED
100
AcDbEntity
  8
0
  6
CONTINUOUS
 62
          15
100
AcDbLine
 10
31.191650390625
 20
121.7255859375
 30
0.0
 11
30.020221710205
 21
121.7255859375
 31
0.0
  0
LINE
  5
EE
100
AcDbEntity
  8
0
  6
CONTINUOUS
 62
          15
100
AcDbLine
 10
30.020221710205
 20
121.7255859375
 30
0.0
 11
30.020221710205
 21
123.803100585938
 31
0.0
  0
LINE
  5
EF
100
AcDbEntity
  8
0
  6
CONTINUOUS
 62
          15
100
AcDbLine
 10
30.020221710205
 20
122.422828674316
 30
0.0
 11
31.191650390625
 21
122.422828674316
 31
0.0
  0
ELLIPSE
  5
F0
100
AcDbEntity
  8
0
  6
CONTINUOUS
 62
          15
100
AcDbEllipse
 10
30.597393035889
 20
126.598709106445
 30
0.0
 11
-0.8523110151290796
 21
0.0000001286953828
 31
0.0
210
0.0
220
0.0
230
1.0
 40
0.624739307353
 41
0.0
 42
6.2831853071795862
  0
LINE
  5
F1
100
AcDbEntity
  8
0
  6
CONTINUOUS
 62
          15
100
AcDbLine
 10
31.022922515869
 20
126.173179626465
 30
0.0
 11
30.171871185303
 21
127.02424621582
 31
0.0
  0
LINE
  5
F2
100
AcDbEntity
  8
0
  6
CONTINUOUS
 62
          15
100
AcDbLine
 10
32.863079071045
 20
123.803100585938
 30
0.0
 11
34.034511566162
 21
123.803100585938
 31
0.0
  0
LINE
  5
F3
100
AcDbEntity
  8
0
  6
CONTINUOUS
 62
          15
100
AcDbLine
 10
34.034511566162
 20
123.803100585938
 30
0.0
 11
34.034511566162
 21
121.7255859375
 31
0.0
  0
LINE
  5
F4
100
AcDbEntity
  8
0
  6
CONTINUOUS
 62
          15
100
AcDbLine
 10
34.034511566162
 20
121.7255859375
 30
0.0
 11
32.863079071045
 21
121.7255859375
 31
0.0
  0
LINE
  5
F5
100
AcDbEntity
  8
0
  6
CONTINUOUS
 62
          15
100
AcDbLine
 10
32.863079071045
 20
121.7255859375
 30
0.0
 11
32.863079071045
 21
123.803100585938
 31
0.0
  0
LINE
  5
F6
100
AcDbEntity
  8
0
  6
CONTINUOUS
 62
          15
100
AcDbLine
 10
32.863079071045
 20
122.422828674316
 30
0.0
 11
34.034511566162
 21
122.422828674316
 31
0.0
  0
ELLIPSE
  5
F7
100
AcDbEntity
  8
0
  6
CONTINUOUS
 62
          15
100
AcDbEllipse
 10
33.440250396729
 20
126.598709106445
 30
0.0
 11
-0.8523110151290796
 21
0.0000001286953828
 31
0.0
210
0.0
220
0.0
230
1.0
 40
0.624739307353
 41
0.0
 42
6.2831853071795862
  0
LINE
  5
F8
100
AcDbEntity
  8
0
  6
CONTINUOUS
 62
          15
100
AcDbLine
 10
33.865783691406
 20
126.173179626465
 30
0.0
 11
33.01473236084
 21
127.02424621582
 31
0.0
  0
LINE
  5
F9
100
AcDbEntity
  8
0
  6
CONTINUOUS
 62
          15
100
AcDbLine
 10
35.828212738037
 20
123.803100585938
 30
0.0
 11
36.999645233154
 21
123.803100585938
 31
0.0
  0
LINE
  5
FA
100
AcDbEntity
  8
0
  6
CONTINUOUS
 62
          15
100
AcDbLine
 10
36.999645233154
 20
123.803100585938
 30
0.0
 11
36.999645233154
 21
121.7255859375
 31
0.0
  0
LINE
  5
FB
100
AcDbEntity
  8
0
  6
CONTINUOUS
 62
          15
100
AcDbLine
 10
36.999645233154
 20
121.7255859375
 30
0.0
 11
35.828212738037
 21
121.7255859375
 31
0.0
  0
LINE
  5
FC
100
AcDbEntity
  8
0
  6
CONTINUOUS
 62
          15
100
AcDbLine
 10
35.828212738037
 20
121.7255859375
 30
0.0
 11
35.828212738037
 21
123.803100585938
 31
0.0
  0
LINE
  5
FD
100
AcDbEntity
  8
0
  6
CONTINUOUS
 62
          15
100
AcDbLine
 10
35.828212738037
 20
122.422828674316
 30
0.0
 11
36.999645233154
 21
122.422828674316
 31
0.0
  0
ELLIPSE
  5
FE
100
AcDbEntity
  8
0
  6
CONTINUOUS
 62
          15
100
AcDbEllipse
 10
36.405384063721
 20
126.598709106445
 30
0.0
 11
-0.8523110151290796
 21
0.0000001286953828
 31
0.0
210
0.0
220
0.0
230
1.0
 40
0.624739307353
 41
0.0
 42
6.2831853071795862
  0
LINE
  5
FF
100
AcDbEntity
  8
0
  6
CONTINUOUS
 62
          15
100
AcDbLine
 10
36.830913543701
 20
126.173179626465
 30
0.0
 11
35.979866027832
 21
127.02424621582
 31
0.0
  0
LINE
  5
100
100
AcDbEntity
  8
0
  6
CONTINUOUS
 62
          15
100
AcDbLine
 10
38.885051727295
 20
123.803100585938
 30
0.0
 11
40.056484222412
 21
123.803100585938
 31
0.0
  0
LINE
  5
101
100
AcDbEntity
  8
0
  6
CONTINUOUS
 62
          15
100
AcDbLine
 10
40.056484222412
 20
123.803100585938
 30
0.0
 11
40.056484222412
 21
121.7255859375
 31
0.0
  0
LINE
  5
102
100
AcDbEntity
  8
0
  6
CONTINUOUS
 62
          15
100
AcDbLine
 10
40.056484222412
 20
121.7255859375
 30
0.0
 11
38.885051727295
 21
121.7255859375
 31
0.0
  0
LINE
  5
103
100
AcDbEntity
  8
0
  6
CONTINUOUS
 62
          15
100
AcDbLine
 10
38.885051727295
 20
121.7255859375
 30
0.0
 11
38.885051727295
 21
123.803100585938
 31
0.0
  0
LINE
  5
104
100
AcDbEntity
  8
0
  6
CONTINUOUS
 62
          15
100
AcDbLine
 10
38.885051727295
 20
122.422828674316
 30
0.0
 11
40.056484222412
 21
122.422828674316
 31
0.0
  0
ELLIPSE
  5
105
100
AcDbEntity
  8
0
  6
CONTINUOUS
 62
          15
100
AcDbEllipse
 10
39.462223052979
 20
126.598709106445
 30
0.0
 11
-0.8523110151290796
 21
0.0000001286953828
 31
0.0
210
0.0
220
0.0
230
1.0
 40
0.624739307353
 41
0.0
 42
6.2831853071795862
  0
LINE
  5
106
100
AcDbEntity
  8
0
  6
CONTINUOUS
 62
          15
100
AcDbLine
 10
39.887756347656
 20
126.173179626465
 30
0.0
 11
39.03670501709
 21
127.02424621582
 31
0.0
  0
LINE
  5
107
100
AcDbEntity
  8
0
  6
CONTINUOUS
 62
          15
100
AcDbLine
 10
26.749401092529
 20
123.803100585938
 30
0.0
 11
27.920831680298
 21
123.803100585938
 31
0.0
  0
LINE
  5
108
100
AcDbEntity
  8
0
  6
CONTINUOUS
 62
          15
100
AcDbLine
 10
27.920831680298
 20
123.803100585938
 30
0.0
 11
27.920831680298
 21
121.7255859375
 31
0.0
  0
LINE
  5
109
100
AcDbEntity
  8
0
  6
CONTINUOUS
 62
          15
100
AcDbLine
 10
27.920831680298
 20
121.7255859375
 30
0.0
 11
26.749401092529
 21
121.7255859375
 31
0.0
  0
LINE
  5
10A
100
AcDbEntity
  8
0
  6
CONTINUOUS
 62
          15
100
AcDbLine
 10
26.749401092529
 20
121.7255859375
 30
0.0
 11
26.749401092529
 21
123.803100585938
 31
0.0
  0
LINE
  5
10B
100
AcDbEntity
  8
0
  6
CONTINUOUS
 62
          15
100
AcDbLine
 10
26.749401092529
 20
122.422828674316
 30
0.0
 11
27.920831680298
 21
122.422828674316
 31
0.0
  0
ELLIPSE
  5
10C
100
AcDbEntity
  8
0
  6
CONTINUOUS
 62
          15
100
AcDbEllipse
 10
27.326572418213
 20
126.598709106445
 30
0.0
 11
-0.8523110151290796
 21
0.0000001286953828
 31
0.0
210
0.0
220
0.0
230
1.0
 40
0.624739307353
 41
0.0
 42
6.2831853071795862
  0
LINE
  5
10D
100
AcDbEntity
  8
0
  6
CONTINUOUS
 62
          15
100
AcDbLine
 10
27.752103805542
 20
126.173179626465
 30
0.0
 11
26.901052474976
 21
127.02424621582
 31
0.0
  0
LINE
  5
10E
100
AcDbEntity
  8
0
  6
CONTINUOUS
 62
          15
100
AcDbLine
 10
28.932737350464
 20
120.480834960938
 30
0.0
 11
28.932737350464
 21
128.712600708008
 31
0.0
  0
LINE
  5
10F
100
AcDbEntity
  8
0
  6
CONTINUOUS
 62
          15
100
AcDbLine
 10
32.0207862854
 20
120.480834960938
 30
0.0
 11
32.0207862854
 21
128.712600708008
 31
0.0
  0
LINE
  5
110
100
AcDbEntity
  8
0
  6
CONTINUOUS
 62
          15
100
AcDbLine
 10
34.917537689209
 20
120.480834960938
 30
0.0
 11
34.917537689209
 21
128.712600708008
 31
0.0
  0
LINE
  5
111
100
AcDbEntity
  8
0
  6
CONTINUOUS
 62
          15
100
AcDbLine
 10
37.923603057861
 20
120.480834960938
 30
0.0
 11
37.923603057861
 21
128.712600708008
 31
0.0
  0
LINE
  5
112
100
AcDbEntity
  8
0
  6
CONTINUOUS
 62
          15
100
AcDbLine
 10
40.766227722168
 20
120.480834960938
 30
0.0
 11
55.544410705566
 21
120.480834960938
 31
0.0
  0
LINE
  5
113
100
AcDbEntity
  8
0
  6
CONTINUOUS
 62
          15
100
AcDbLine
 10
47.640647888184
 20
123.803100585938
 30
0.0
 11
48.812076568604
 21
123.803100585938
 31
0.0
  0
LINE
  5
114
100
AcDbEntity
  8
0
  6
CONTINUOUS
 62
          15
100
AcDbLine
 10
48.812076568604
 20
123.803100585938
 30
0.0
 11
48.812076568604
 21
121.7255859375
 31
0.0
  0
LINE
  5
115
100
AcDbEntity
  8
0
  6
CONTINUOUS
 62
          15
100
AcDbLine
 10
48.812076568604
 20
121.7255859375
 30
0.0
 11
47.640647888184
 21
121.7255859375
 31
0.0
  0
LINE
  5
116
100
AcDbEntity
  8
0
  6
CONTINUOUS
 62
          15
100
AcDbLine
 10
47.640647888184
 20
121.7255859375
 30
0.0
 11
47.640647888184
 21
123.803100585938
 31
0.0
  0
LINE
  5
117
100
AcDbEntity
  8
0
  6
CONTINUOUS
 62
          15
100
AcDbLine
 10
47.640647888184
 20
122.422828674316
 30
0.0
 11
48.812076568604
 21
122.422828674316
 31
0.0
  0
ELLIPSE
  5
118
100
AcDbEntity
  8
0
  6
CONTINUOUS
 62
          15
100
AcDbEllipse
 10
48.217819213867
 20
126.598709106445
 30
0.0
 11
-0.8523110151290796
 21
0.0000001286953828
 31
0.0
210
0.0
220
0.0
230
1.0
 40
0.624739307353
 41
0.0
 42
6.2831853071795862
  0
LINE
  5
119
100
AcDbEntity
  8
0
  6
CONTINUOUS
 62
          15
100
AcDbLine
 10
48.643348693848
 20
126.173179626465
 30
0.0
 11
47.792297363281
 21
127.02424621582
 31
0.0
  0
LINE
  5
11A
100
AcDbEntity
  8
0
  6
CONTINUOUS
 62
          15
100
AcDbLine
 10
50.483505249023
 20
123.803100585938
 30
0.0
 11
51.654933929443
 21
123.803100585938
 31
0.0
  0
LINE
  5
11B
100
AcDbEntity
  8
0
  6
CONTINUOUS
 62
          15
100
AcDbLine
 10
51.654933929443
 20
123.803100585938
 30
0.0
 11
51.654933929443
 21
121.7255859375
 31
0.0
  0
LINE
  5
11C
100
AcDbEntity
  8
0
  6
CONTINUOUS
 62
          15
100
AcDbLine
 10
51.654933929443
 20
121.7255859375
 30
0.0
 11
50.483505249023
 21
121.7255859375
 31
0.0
  0
LINE
  5
11D
100
AcDbEntity
  8
0
  6
CONTINUOUS
 62
          15
100
AcDbLine
 10
50.483505249023
 20
121.7255859375
 30
0.0
 11
50.483505249023
 21
123.803100585938
 31
0.0
  0
LINE
  5
11E
100
AcDbEntity
  8
0
  6
CONTINUOUS
 62
          15
100
AcDbLine
 10
50.483505249023
 20
122.422828674316
 30
0.0
 11
51.654933929443
 21
122.422828674316
 31
0.0
  0
ELLIPSE
  5
11F
100
AcDbEntity
  8
0
  6
CONTINUOUS
 62
          15
100
AcDbEllipse
 10
51.060676574707
 20
126.598709106445
 30
0.0
 11
-0.8523110151290796
 21
0.0000001286953828
 31
0.0
210
0.0
220
0.0
230
1.0
 40
0.624739307353
 41
0.0
 42
6.2831853071795862
  0
LINE
  5
120
100
AcDbEntity
  8
0
  6
CONTINUOUS
 62
          15
100
AcDbLine
 10
51.486206054688
 20
126.173179626465
 30
0.0
 11
50.635154724121
 21
127.02424621582
 31
0.0
  0
LINE
  5
121
100
AcDbEntity
  8
0
  6
CONTINUOUS
 62
          15
100
AcDbLine
 10
53.448638916016
 20
123.803100585938
 30
0.0
 11
54.620067596436
 21
123.803100585938
 31
0.0
  0
LINE
  5
122
100
AcDbEntity
  8
0
  6
CONTINUOUS
 62
          15
100
AcDbLine
 10
54.620067596436
 20
123.803100585938
 30
0.0
 11
54.620067596436
 21
121.7255859375
 31
0.0
  0
LINE
  5
123
100
AcDbEntity
  8
0
  6
CONTINUOUS
 62
          15
100
AcDbLine
 10
54.620067596436
 20
121.7255859375
 30
0.0
 11
53.448638916016
 21
121.7255859375
 31
0.0
  0
LINE
  5
124
100
AcDbEntity
  8
0
  6
CONTINUOUS
 62
          15
100
AcDbLine
 10
53.448638916016
 20
121.7255859375
 30
0.0
 11
53.448638916016
 21
123.803100585938
 31
0.0
  0
LINE
  5
125
100
AcDbEntity
  8
0
  6
CONTINUOUS
 62
          15
100
AcDbLine
 10
53.448638916016
 20
122.422828674316
 30
0.0
 11
54.620067596436
 21
122.422828674316
 31
0.0
  0
ELLIPSE
  5
126
100
AcDbEntity
  8
0
  6
CONTINUOUS
 62
          15
100
AcDbEllipse
 10
54.025810241699
 20
126.598709106445
 30
0.0
 11
-0.8523110151290796
 21
0.0000001286953828
 31
0.0
210
0.0
220
0.0
230
1.0
 40
0.624739307353
 41
0.0
 42
6.2831853071795862
  0
LINE
  5
127
100
AcDbEntity
  8
0
  6
CONTINUOUS
 62
          15
100
AcDbLine
 10
54.45133972168
 20
126.173179626465
 30
0.0
 11
53.600288391113
 21
127.02424621582
 31
0.0
  0
LINE
  5
128
100
AcDbEntity
  8
0
  6
CONTINUOUS
 62
          15
100
AcDbLine
 10
41.526969909668
 20
123.803100585938
 30
0.0
 11
42.698398590088
 21
123.803100585938
 31
0.0
  0
LINE
  5
129
100
AcDbEntity
  8
0
  6
CONTINUOUS
 62
          15
100
AcDbLine
 10
42.698398590088
 20
123.803100585938
 30
0.0
 11
42.698398590088
 21
121.7255859375
 31
0.0
  0
LINE
  5
12A
100
AcDbEntity
  8
0
  6
CONTINUOUS
 62
          15
100
AcDbLine
 10
42.698398590088
 20
121.7255859375
 30
0.0
 11
41.526969909668
 21
121.7255859375
 31
0.0
  0
LINE
  5
12B
100
AcDbEntity
  8
0
  6
CONTINUOUS
 62
          15
100
AcDbLine
 10
41.526969909668
 20
121.7255859375
 30
0.0
 11
41.526969909668
 21
123.803100585938
 31
0.0
  0
LINE
  5
12C
100
AcDbEntity
  8
0
  6
CONTINUOUS
 62
          15
100
AcDbLine
 10
41.526969909668
 20
122.422828674316
 30
0.0
 11
42.698398590088
 21
122.422828674316
 31
0.0
  0
ELLIPSE
  5
12D
100
AcDbEntity
  8
0
  6
CONTINUOUS
 62
          15
100
AcDbEllipse
 10
42.104141235352
 20
126.598709106445
 30
0.0
 11
-0.8523110151290796
 21
0.0000001286953828
 31
0.0
210
0.0
220
0.0
230
1.0
 40
0.624739307353
 41
0.0
 42
6.2831853071795862
  0
LINE
  5
12E
100
AcDbEntity
  8
0
  6
CONTINUOUS
 62
          15
100
AcDbLine
 10
42.529670715332
 20
126.173179626465
 30
0.0
 11
41.678619384766
 21
127.02424621582
 31
0.0
  0
LINE
  5
12F
100
AcDbEntity
  8
0
  6
CONTINUOUS
 62
          15
100
AcDbLine
 10
44.369827270508
 20
123.803100585938
 30
0.0
 11
45.541255950928
 21
123.803100585938
 31
0.0
  0
LINE
  5
130
100
AcDbEntity
  8
0
  6
CONTINUOUS
 62
          15
100
AcDbLine
 10
45.541255950928
 20
123.803100585938
 30
0.0
 11
45.541255950928
 21
121.7255859375
 31
0.0
  0
LINE
  5
131
100
AcDbEntity
  8
0
  6
CONTINUOUS
 62
          15
100
AcDbLine
 10
45.541255950928
 20
121.7255859375
 30
0.0
 11
44.369827270508
 21
121.7255859375
 31
0.0
  0
LINE
  5
132
100
AcDbEntity
  8
0
  6
CONTINUOUS
 62
          15
100
AcDbLine
 10
44.369827270508
 20
121.7255859375
 30
0.0
 11
44.369827270508
 21
123.803100585938
 31
0.0
  0
LINE
  5
133
100
AcDbEntity
  8
0
  6
CONTINUOUS
 62
          15
100
AcDbLine
 10
44.369827270508
 20
122.422828674316
 30
0.0
 11
45.541255950928
 21
122.422828674316
 31
0.0
  0
ELLIPSE
  5
134
100
AcDbEntity
  8
0
  6
CONTINUOUS
 62
          15
100
AcDbEllipse
 10
44.946998596191
 20
126.598709106445
 30
0.0
 11
-0.8523110151290796
 21
0.0000001286953828
 31
0.0
210
0.0
220
0.0
230
1.0
 40
0.624739307353
 41
0.0
 42
6.2831853071795862
  0
LINE
  5
135
100
AcDbEntity
  8
0
  6
CONTINUOUS
 62
          15
100
AcDbLine
 10
45.372528076172
 20
126.173179626465
 30
0.0
 11
44.521476745605
 21
127.02424621582
 31
0.0
  0
LINE
  5
136
100
AcDbEntity
  8
0
  6
CONTINUOUS
 62
          15
100
AcDbLine
 10
40.766227722168
 20
120.474143981934
 30
0.0
 11
40.766227722168
 21
128.716430664063
 31
0.0
  0
LINE
  5
137
100
AcDbEntity
  8
0
  6
CONTINUOUS
 62
          15
100
AcDbLine
 10
46.553161621094
 20
120.480834960938
 30
0.0
 11
46.553161621094
 21
128.712600708008
 31
0.0
  0
LINE
  5
138
100
AcDbEntity
  8
0
  6
CONTINUOUS
 62
          15
100
AcDbLine
 10
43.492443084717
 20
120.480834960938
 30
0.0
 11
43.492443084717
 21
128.712600708008
 31
0.0
  0
LINE
  5
139
100
AcDbEntity
  8
0
  6
CONTINUOUS
 62
          15
100
AcDbLine
 10
49.641208648682
 20
120.480834960938
 30
0.0
 11
49.641208648682
 21
128.712600708008
 31
0.0
  0
LINE
  5
13A
100
AcDbEntity
  8
0
  6
CONTINUOUS
 62
          15
100
AcDbLine
 10
52.537963867188
 20
120.480834960938
 30
0.0
 11
52.537963867188
 21
128.712600708008
 31
0.0
  0
TEXT
  5
13B
100
AcDbEntity
  8
0
  6
CONTINUOUS
 62
          15
100
AcDbText
 10
26.968488693237
 20
118.607556864619
 30
0.0
 40
1.078992009163
  1
C
  7
TXT
100
AcDbText
  0
LINE
  5
13C
100
AcDbEntity
  8
0
  6
CONTINUOUS
 62
          15
100
AcDbLine
 10
25.868246078491
 20
120.480834960938
 30
0.0
 11
25.868246078491
 21
128.712600708008
 31
0.0
  0
TEXT
  5
13D
100
AcDbEntity
  8
0
  6
CONTINUOUS
 62
          15
100
AcDbText
 10
28.933174133301
 20
116.359693095088
 30
0.0
 40
1.078992009163
  1
SERVICE A
 41
1.027777737881
  7
TXT
100
AcDbText
  0
TEXT
  5
13E
100
AcDbEntity
  8
0
  6
CONTINUOUS
 62
          15
100
AcDbText
 10
44.560802459717
 20
118.607556864619
 30
0.0
 40
1.078992009163
  1
1
  7
TXT
100
AcDbText
  0
TEXT
  5
13F
100
AcDbEntity
  8
0
  6
CONTINUOUS
 62
          15
100
AcDbText
 10
47.558002471924
 20
118.607556864619
 30
0.0
 40
1.078992009163
  1
2
  7
TXT
100
AcDbText
  0
TEXT
  5
140
100
AcDbEntity
  8
0
  6
CONTINUOUS
 62
          15
100
AcDbText
 10
50.555202484131
 20
118.607556864619
 30
0.0
 40
1.078992009163
  1
3
  7
TXT
100
AcDbText
  0
TEXT
  5
141
100
AcDbEntity
  8
0
  6
CONTINUOUS
 62
          15
100
AcDbText
 10
53.357585906982
 20
118.607556864619
 30
0.0
 40
1.078992009163
  1
4
  7
TXT
100
AcDbText
  0
TEXT
  5
142
100
AcDbEntity
  8
0
  6
CONTINUOUS
 62
          15
100
AcDbText
 10
41.788299560547
 20
118.607556864619
 30
0.0
 40
1.078992009163
  1
C
  7
TXT
100
AcDbText
  0
LINE
  5
143
100
AcDbEntity
  8
0
  6
CONTINUOUS
 62
          15
100
AcDbLine
 10
55.544410705566
 20
120.480834960938
 30
0.0
 11
55.544410705566
 21
128.712600708008
 31
0.0
  0
TEXT
  5
144
100
AcDbEntity
  8
0
  6
CONTINUOUS
 62
          15
100
AcDbText
 10
59.889205932617
 20
118.607556864619
 30
0.0
 40
1.078992009163
  1
1
  7
TXT
100
AcDbText
  0
TEXT
  5
145
100
AcDbEntity
  8
0
  6
CONTINUOUS
 62
          15
100
AcDbText
 10
62.691589355469
 20
118.607556864619
 30
0.0
 40
1.078992009163
  1
2
  7
TXT
100
AcDbText
  0
TEXT
  5
146
100
AcDbEntity
  8
0
  6
CONTINUOUS
 62
          15
100
AcDbText
 10
65.688789367676
 20
118.607556864619
 30
0.0
 40
1.078992009163
  1
3
  7
TXT
100
AcDbText
  0
TEXT
  5
147
100
AcDbEntity
  8
0
  6
CONTINUOUS
 62
          15
100
AcDbText
 10
68.685981750488
 20
118.607556864619
 30
0.0
 40
1.078992009163
  1
4
  7
TXT
100
AcDbText
  0
LINE
  5
148
100
AcDbEntity
  8
0
  6
CONTINUOUS
 62
          15
100
AcDbLine
 10
70.442390441895
 20
120.480834960938
 30
0.0
 11
70.442390441895
 21
128.712600708008
 31
0.0
  0
LINE
  5
149
100
AcDbEntity
  8
0
  6
CONTINUOUS
 62
          15
100
AcDbLine
 10
55.544410705566
 20
120.480834960938
 30
0.0
 11
85.220573425293
 21
120.480834960938
 31
0.0
  0
LINE
  5
14A
100
AcDbEntity
  8
0
  6
CONTINUOUS
 62
          15
100
AcDbLine
 10
70.442390441895
 20
120.474143981934
 30
0.0
 11
70.442390441895
 21
128.716430664063
 31
0.0
  0
TEXT
  5
14B
100
AcDbEntity
  8
0
  6
CONTINUOUS
 62
          15
100
AcDbText
 10
56.64465713501
 20
118.607556864619
 30
0.0
 40
1.078992009163
  1
C
  7
TXT
100
AcDbText
  0
TEXT
  5
14C
100
AcDbEntity
  8
0
  6
CONTINUOUS
 62
          15
100
AcDbText
 10
58.609340667725
 20
116.359693095088
 30
0.0
 40
1.078992009163
  1
SERVICE C
 41
1.027777737881
  7
TXT
100
AcDbText
  0
TEXT
  5
14D
100
AcDbEntity
  8
0
  6
CONTINUOUS
 62
          15
100
AcDbText
 10
74.236968994141
 20
118.607556864619
 30
0.0
 40
1.078992009163
  1
1
  7
TXT
100
AcDbText
  0
TEXT
  5
14E
100
AcDbEntity
  8
0
  6
CONTINUOUS
 62
          15
100
AcDbText
 10
77.234169006348
 20
118.607556864619
 30
0.0
 40
1.078992009163
  1
2
  7
TXT
100
AcDbText
  0
TEXT
  5
14F
100
AcDbEntity
  8
0
  6
CONTINUOUS
 62
          15
100
AcDbText
 10
80.231369018555
 20
118.607556864619
 30
0.0
 40
1.078992009163
  1
3
  7
TXT
100
AcDbText
  0
TEXT
  5
150
100
AcDbEntity
  8
0
  6
CONTINUOUS
 62
          15
100
AcDbText
 10
83.033752441406
 20
118.607556864619
 30
0.0
 40
1.078992009163
  1
4
  7
TXT
100
AcDbText
  0
TEXT
  5
151
100
AcDbEntity
  8
0
  6
CONTINUOUS
 62
          15
100
AcDbText
 10
71.464462280273
 20
118.607556864619
 30
0.0
 40
1.078992009163
  1
C
  7
TXT
100
AcDbText
  0
LINE
  5
152
100
AcDbEntity
  8
0
  6
CONTINUOUS
 62
          15
100
AcDbLine
 10
85.220573425293
 20
120.480834960938
 30
0.0
 11
85.220573425293
 21
128.712600708008
 31
0.0
  0
LINE
  5
153
100
AcDbEntity
  8
0
  6
CONTINUOUS
 62
          15
100
AcDbLine
 10
96.600616455078
 20
128.636459350586
 30
0.0
 11
87.788841247559
 21
128.636459350586
 31
0.0
  0
LINE
  5
154
100
AcDbEntity
  8
0
  6
CONTINUOUS
 62
          15
100
AcDbLine
 10
96.600616455078
 20
128.636459350586
 30
0.0
 11
96.600616455078
 21
121.326377868652
 31
0.0
  0
LINE
  5
155
100
AcDbEntity
  8
0
  6
CONTINUOUS
 62
          15
100
AcDbLine
 10
87.788841247559
 20
121.326377868652
 30
0.0
 11
87.788841247559
 21
128.636459350586
 31
0.0
  0
TEXT
  5
156
100
AcDbEntity
  8
0
  6
CONTINUOUS
 62
          15
100
AcDbText
 10
88.927787780762
 20
119.644856974483
 30
0.0
 40
1.078992009163
  1
1
  7
TXT
100
AcDbText
  0
TEXT
  5
157
100
AcDbEntity
  8
0
  6
CONTINUOUS
 62
          15
100
AcDbText
 10
91.730163574219
 20
119.644856974483
 30
0.0
 40
1.078992009163
  1
2
  7
TXT
100
AcDbText
  0
TEXT
  5
158
100
AcDbEntity
  8
0
  6
CONTINUOUS
 62
          15
100
AcDbText
 10
94.727355957031
 20
119.644856974483
 30
0.0
 40
1.078992009163
  1
S
  7
TXT
100
AcDbText
  0
TEXT
  5
159
100
AcDbEntity
  8
0
  6
CONTINUOUS
 62
          15
100
AcDbText
 10
88.55313873291
 20
117.396993204951
 30
0.0
 40
1.078992009163
  1
SIGNALS
 41
1.037036993049
  7
TXT
100
AcDbText
  0
LINE
  5
15A
100
AcDbEntity
  8
0
  6
CONTINUOUS
 62
          15
100
AcDbLine
 10
87.788841247559
 20
121.326377868652
 30
0.0
 11
96.600616455078
 21
121.326377868652
 31
0.0
  0
LINE
  5
15B
100
AcDbEntity
  8
0
  6
CONTINUOUS
 62
          15
100
AcDbLine
 10
88.738296508789
 20
124.404556274414
 30
0.0
 11
89.909721374512
 21
124.404556274414
 31
0.0
  0
LINE
  5
15C
100
AcDbEntity
  8
0
  6
CONTINUOUS
 62
          15
100
AcDbLine
 10
89.909721374512
 20
124.404556274414
 30
0.0
 11
89.909721374512
 21
122.327041625977
 31
0.0
  0
LINE
  5
15D
100
AcDbEntity
  8
0
  6
CONTINUOUS
 62
          15
100
AcDbLine
 10
89.909721374512
 20
122.327041625977
 30
0.0
 11
88.738296508789
 21
122.327041625977
 31
0.0
  0
LINE
  5
15E
100
AcDbEntity
  8
0
  6
CONTINUOUS
 62
          15
100
AcDbLine
 10
88.738296508789
 20
122.327041625977
 30
0.0
 11
88.738296508789
 21
124.404556274414
 31
0.0
  0
LINE
  5
15F
100
AcDbEntity
  8
0
  6
CONTINUOUS
 62
          15
100
AcDbLine
 10
88.738296508789
 20
123.024291992188
 30
0.0
 11
89.909721374512
 21
123.024291992188
 31
0.0
  0
ELLIPSE
  5
160
100
AcDbEntity
  8
0
  6
CONTINUOUS
 62
          15
100
AcDbEllipse
 10
89.315467834473
 20
127.200172424316
 30
0.0
 11
-0.8523110151290796
 21
0.0000001286953828
 31
0.0
210
0.0
220
0.0
230
1.0
 40
0.624739307353
 41
0.0
 42
6.2831853071795862
  0
LINE
  5
161
100
AcDbEntity
  8
0
  6
CONTINUOUS
 62
          15
100
AcDbLine
 10
89.740997314453
 20
126.774642944336
 30
0.0
 11
88.889945983887
 21
127.625709533691
 31
0.0
  0
LINE
  5
162
100
AcDbEntity
  8
0
  6
CONTINUOUS
 62
          15
100
AcDbLine
 10
91.581153869629
 20
124.404556274414
 30
0.0
 11
92.752578735352
 21
124.404556274414
 31
0.0
  0
LINE
  5
163
100
AcDbEntity
  8
0
  6
CONTINUOUS
 62
          15
100
AcDbLine
 10
92.752578735352
 20
124.404556274414
 30
0.0
 11
92.752578735352
 21
122.327041625977
 31
0.0
  0
LINE
  5
164
100
AcDbEntity
  8
0
  6
CONTINUOUS
 62
          15
100
AcDbLine
 10
92.752578735352
 20
122.327041625977
 30
0.0
 11
91.581153869629
 21
122.327041625977
 31
0.0
  0
LINE
  5
165
100
AcDbEntity
  8
0
  6
CONTINUOUS
 62
          15
100
AcDbLine
 10
91.581153869629
 20
122.327041625977
 30
0.0
 11
91.581153869629
 21
124.404556274414
 31
0.0
  0
LINE
  5
166
100
AcDbEntity
  8
0
  6
CONTINUOUS
 62
          15
100
AcDbLine
 10
91.581153869629
 20
123.024291992188
 30
0.0
 11
92.752578735352
 21
123.024291992188
 31
0.0
  0
ELLIPSE
  5
167
100
AcDbEntity
  8
0
  6
CONTINUOUS
 62
          15
100
AcDbEllipse
 10
92.158325195313
 20
127.200172424316
 30
0.0
 11
-0.8523110151290796
 21
0.0000001286953828
 31
0.0
210
0.0
220
0.0
230
1.0
 40
0.624739307353
 41
0.0
 42
6.2831853071795862
  0
LINE
  5
168
100
AcDbEntity
  8
0
  6
CONTINUOUS
 62
          15
100
AcDbLine
 10
92.583854675293
 20
126.774642944336
 30
0.0
 11
91.732803344727
 21
127.625709533691
 31
0.0
  0
LINE
  5
169
100
AcDbEntity
  8
0
  6
CONTINUOUS
 62
          15
100
AcDbLine
 10
94.546287536621
 20
124.404556274414
 30
0.0
 11
95.717712402344
 21
124.404556274414
 31
0.0
  0
LINE
  5
16A
100
AcDbEntity
  8
0
  6
CONTINUOUS
 62
          15
100
AcDbLine
 10
95.717712402344
 20
124.404556274414
 30
0.0
 11
95.717712402344
 21
122.327041625977
 31
0.0
  0
LINE
  5
16B
100
AcDbEntity
  8
0
  6
CONTINUOUS
 62
          15
100
AcDbLine
 10
95.717712402344
 20
122.327041625977
 30
0.0
 11
94.546287536621
 21
122.327041625977
 31
0.0
  0
LINE
  5
16C
100
AcDbEntity
  8
0
  6
CONTINUOUS
 62
          15
100
AcDbLine
 10
94.546287536621
 20
122.327041625977
 30
0.0
 11
94.546287536621
 21
124.404556274414
 31
0.0
  0
LINE
  5
16D
100
AcDbEntity
  8
0
  6
CONTINUOUS
 62
          15
100
AcDbLine
 10
94.546287536621
 20
123.024291992188
 30
0.0
 11
95.717712402344
 21
123.024291992188
 31
0.0
  0
ELLIPSE
  5
16E
100
AcDbEntity
  8
0
  6
CONTINUOUS
 62
          15
100
AcDbEllipse
 10
95.123458862305
 20
127.200172424316
 30
0.0
 11
-0.8523110151290796
 21
0.0000001286953828
 31
0.0
210
0.0
220
0.0
230
1.0
 40
0.624739307353
 41
0.0
 42
6.2831853071795862
  0
LINE
  5
16F
100
AcDbEntity
  8
0
  6
CONTINUOUS
 62
          15
100
AcDbLine
 10
95.548988342285
 20
126.774642944336
 30
0.0
 11
94.697937011719
 21
127.625709533691
 31
0.0
  0
LINE
  5
170
100
AcDbEntity
  8
0
  6
CONTINUOUS
 62
          15
100
AcDbLine
 10
90.73885345459
 20
121.326377868652
 30
0.0
 11
90.73885345459
 21
128.636459350586
 31
0.0
  0
LINE
  5
171
100
AcDbEntity
  8
0
  6
CONTINUOUS
 62
          15
100
AcDbLine
 10
93.635612487793
 20
121.326377868652
 30
0.0
 11
93.635612487793
 21
128.636459350586
 31
0.0
  0
LINE
  5
172
100
AcDbEntity
  8
0
  6
CONTINUOUS
 62
          15
100
AcDbLine
 10
87.788841247559
 20
125.50072479248
 30
0.0
 11
96.588874816895
 21
125.50072479248
 31
0.0
  0
LINE
  5
173
100
AcDbEntity
  8
0
  6
CONTINUOUS
 62
          15
100
AcDbLine
 10
101.380104064941
 20
127.817314147949
 30
0.0
 11
110.191879272461
 21
127.817314147949
 31
0.0
  0
LINE
  5
174
100
AcDbEntity
  8
0
  6
CONTINUOUS
 62
          15
100
AcDbLine
 10
110.191879272461
 20
135.127395629883
 30
0.0
 11
101.380104064941
 21
135.127395629883
 31
0.0
  0
LINE
  5
175
100
AcDbEntity
  8
0
  6
CONTINUOUS
 62
          15
100
AcDbLine
 10
110.191879272461
 20
135.127395629883
 30
0.0
 11
110.191879272461
 21
127.817314147949
 31
0.0
  0
LINE
  5
176
100
AcDbEntity
  8
0
  6
CONTINUOUS
 62
          15
100
AcDbLine
 10
101.380104064941
 20
127.817314147949
 30
0.0
 11
101.380104064941
 21
135.127395629883
 31
0.0
  0
LINE
  5
177
100
AcDbEntity
  8
0
  6
CONTINUOUS
 62
          15
100
AcDbLine
 10
101.380104064941
 20
127.817314147949
 30
0.0
 11
110.191879272461
 21
127.817314147949
 31
0.0
  0
LINE
  5
178
100
AcDbEntity
  8
0
  6
CONTINUOUS
 62
          15
100
AcDbLine
 10
102.329551696777
 20
130.8955078125
 30
0.0
 11
103.500984191895
 21
130.8955078125
 31
0.0
  0
LINE
  5
179
100
AcDbEntity
  8
0
  6
CONTINUOUS
 62
          15
100
AcDbLine
 10
103.500984191895
 20
130.8955078125
 30
0.0
 11
103.500984191895
 21
128.817993164063
 31
0.0
  0
LINE
  5
17A
100
AcDbEntity
  8
0
  6
CONTINUOUS
 62
          15
100
AcDbLine
 10
103.500984191895
 20
128.817993164063
 30
0.0
 11
102.329551696777
 21
128.817993164063
 31
0.0
  0
LINE
  5
17B
100
AcDbEntity
  8
0
  6
CONTINUOUS
 62
          15
100
AcDbLine
 10
102.329551696777
 20
128.817993164063
 30
0.0
 11
102.329551696777
 21
130.8955078125
 31
0.0
  0
LINE
  5
17C
100
AcDbEntity
  8
0
  6
CONTINUOUS
 62
          15
100
AcDbLine
 10
102.329551696777
 20
129.515243530273
 30
0.0
 11
103.500984191895
 21
129.515243530273
 31
0.0
  0
ELLIPSE
  5
17D
100
AcDbEntity
  8
0
  6
CONTINUOUS
 62
          15
100
AcDbEllipse
 10
102.906723022461
 20
133.691116333008
 30
0.0
 11
-0.8523110151290796
 21
0.0000001286953828
 31
0.0
210
0.0
220
0.0
230
1.0
 40
0.624739307353
 41
0.0
 42
6.2831853071795862
  0
LINE
  5
17E
100
AcDbEntity
  8
0
  6
CONTINUOUS
 62
          15
100
AcDbLine
 10
103.332252502441
 20
133.265579223633
 30
0.0
 11
102.481201171875
 21
134.116653442383
 31
0.0
  0
LINE
  5
17F
100
AcDbEntity
  8
0
  6
CONTINUOUS
 62
          15
100
AcDbLine
 10
105.172409057617
 20
130.8955078125
 30
0.0
 11
106.343841552734
 21
130.8955078125
 31
0.0
  0
LINE
  5
180
100
AcDbEntity
  8
0
  6
CONTINUOUS
 62
          15
100
AcDbLine
 10
106.343841552734
 20
130.8955078125
 30
0.0
 11
106.343841552734
 21
128.817993164063
 31
0.0
  0
LINE
  5
181
100
AcDbEntity
  8
0
  6
CONTINUOUS
 62
          15
100
AcDbLine
 10
106.343841552734
 20
128.817993164063
 30
0.0
 11
105.172409057617
 21
128.817993164063
 31
0.0
  0
LINE
  5
182
100
AcDbEntity
  8
0
  6
CONTINUOUS
 62
          15
100
AcDbLine
 10
105.172409057617
 20
128.817993164063
 30
0.0
 11
105.172409057617
 21
130.8955078125
 31
0.0
  0
LINE
  5
183
100
AcDbEntity
  8
0
  6
CONTINUOUS
 62
          15
100
AcDbLine
 10
105.172409057617
 20
129.515243530273
 30
0.0
 11
106.343841552734
 21
129.515243530273
 31
0.0
  0
ELLIPSE
  5
184
100
AcDbEntity
  8
0
  6
CONTINUOUS
 62
          15
100
AcDbEllipse
 10
105.749580383301
 20
133.691116333008
 30
0.0
 11
-0.8523110151290796
 21
0.0000001286953828
 31
0.0
210
0.0
220
0.0
230
1.0
 40
0.624739307353
 41
0.0
 42
6.2831853071795862
  0
LINE
  5
185
100
AcDbEntity
  8
0
  6
CONTINUOUS
 62
          15
100
AcDbLine
 10
106.175117492676
 20
133.265579223633
 30
0.0
 11
105.324066162109
 21
134.116653442383
 31
0.0
  0
LINE
  5
186
100
AcDbEntity
  8
0
  6
CONTINUOUS
 62
          15
100
AcDbLine
 10
108.137542724609
 20
130.8955078125
 30
0.0
 11
109.308975219727
 21
130.8955078125
 31
0.0
  0
LINE
  5
187
100
AcDbEntity
  8
0
  6
CONTINUOUS
 62
          15
100
AcDbLine
 10
109.308975219727
 20
130.8955078125
 30
0.0
 11
109.308975219727
 21
128.817993164063
 31
0.0
  0
LINE
  5
188
100
AcDbEntity
  8
0
  6
CONTINUOUS
 62
          15
100
AcDbLine
 10
109.308975219727
 20
128.817993164063
 30
0.0
 11
108.137542724609
 21
128.817993164063
 31
0.0
  0
LINE
  5
189
100
AcDbEntity
  8
0
  6
CONTINUOUS
 62
          15
100
AcDbLine
 10
108.137542724609
 20
128.817993164063
 30
0.0
 11
108.137542724609
 21
130.8955078125
 31
0.0
  0
LINE
  5
18A
100
AcDbEntity
  8
0
  6
CONTINUOUS
 62
          15
100
AcDbLine
 10
108.137542724609
 20
129.515243530273
 30
0.0
 11
109.308975219727
 21
129.515243530273
 31
0.0
  0
ELLIPSE
  5
18B
100
AcDbEntity
  8
0
  6
CONTINUOUS
 62
          15
100
AcDbEllipse
 10
108.714714050293
 20
133.691116333008
 30
0.0
 11
-0.8523110151290796
 21
0.0000001286953828
 31
0.0
210
0.0
220
0.0
230
1.0
 40
0.624739307353
 41
0.0
 42
6.2831853071795862
  0
LINE
  5
18C
100
AcDbEntity
  8
0
  6
CONTINUOUS
 62
          15
100
AcDbLine
 10
109.140243530273
 20
133.265579223633
 30
0.0
 11
108.289199829102
 21
134.116653442383
 31
0.0
  0
LINE
  5
18D
100
AcDbEntity
  8
0
  6
CONTINUOUS
 62
          15
100
AcDbLine
 10
104.330108642578
 20
127.817314147949
 30
0.0
 11
104.330108642578
 21
135.127395629883
 31
0.0
  0
LINE
  5
18E
100
AcDbEntity
  8
0
  6
CONTINUOUS
 62
          15
100
AcDbLine
 10
107.226867675781
 20
127.817314147949
 30
0.0
 11
107.226867675781
 21
135.127395629883
 31
0.0
  0
LINE
  5
18F
100
AcDbEntity
  8
0
  6
CONTINUOUS
 62
          15
100
AcDbLine
 10
101.380104064941
 20
131.991668701172
 30
0.0
 11
110.180137634277
 21
131.991668701172
 31
0.0
  0
LINE
  5
190
100
AcDbEntity
  8
0
  6
CONTINUOUS
 62
          15
100
AcDbLine
 10
104.100898742676
 20
126.409309387207
 30
0.0
 11
107.797790527344
 21
126.409309387207
 31
0.0
  0
LINE
  5
191
100
AcDbEntity
  8
0
  6
CONTINUOUS
 62
          15
100
AcDbLine
 10
104.653297424316
 20
125.687225341797
 30
0.0
 11
107.11791229248
 21
125.687225341797
 31
0.0
  0
LINE
  5
192
100
AcDbEntity
  8
0
  6
CONTINUOUS
 62
          15
100
AcDbLine
 10
105.205718994141
 20
124.965148925781
 30
0.0
 11
106.438011169434
 21
124.965148925781
 31
0.0
  0
LINE
  5
193
100
AcDbEntity
  8
0
  6
CONTINUOUS
 62
          15
100
AcDbLine
 10
105.758125305176
 20
129.515243530273
 30
0.0
 11
105.758125305176
 21
126.409309387207
 31
0.0
  0
TEXT
  5
194
100
AcDbEntity
  8
0
  6
CONTINUOUS
 62
          15
100
AcDbText
 10
102.426406860352
 20
123.212087199092
 30
0.0
 40
1.078992009163
  1
240Vac
 41
1.044444402707
  7
TXT
100
AcDbText
  0
TEXT
  5
195
100
AcDbEntity
  8
0
  6
CONTINUOUS
 62
          15
100
AcDbText
 10
108.479110717773
 20
125.903127238154
 30
0.0
 40
1.078992009163
  1
L
  7
TXT
100
AcDbText
  0
TEXT
  5
196
100
AcDbEntity
  8
0
  6
CONTINUOUS
 62
          15
100
AcDbText
 10
102.431427001953
 20
125.903127238154
 30
0.0
 40
1.078992009163
  1
N
  7
TXT
100
AcDbText
  0
LINE
  5
197
100
AcDbEntity
  8
0
  6
CONTINUOUS
 62
          15
100
AcDbLine
 10
27.335117340088
 20
114.606986999512
 30
0.0
 11
27.335117340088
 21
122.422828674316
 31
0.0
  0
LINE
  5
198
100
AcDbEntity
  8
0
  6
CONTINUOUS
 62
          15
100
AcDbLine
 10
30.605936050415
 20
114.606986999512
 30
0.0
 11
30.605936050415
 21
122.422828674316
 31
0.0
  0
LINE
  5
199
100
AcDbEntity
  8
0
  6
CONTINUOUS
 62
          15
100
AcDbLine
 10
33.448795318604
 20
114.606986999512
 30
0.0
 11
33.448795318604
 21
122.422828674316
 31
0.0
  0
LINE
  5
19A
100
AcDbEntity
  8
0
  6
CONTINUOUS
 62
          15
100
AcDbLine
 10
36.413928985596
 20
114.606986999512
 30
0.0
 11
36.413928985596
 21
122.422828674316
 31
0.0
  0
LINE
  5
19B
100
AcDbEntity
  8
0
  6
CONTINUOUS
 62
          15
100
AcDbLine
 10
39.470767974854
 20
114.606986999512
 30
0.0
 11
39.470767974854
 21
122.422828674316
 31
0.0
  0
LINE
  5
19C
100
AcDbEntity
  8
0
  6
CONTINUOUS
 62
          15
100
AcDbLine
 10
89.324005126953
 20
116.985374450684
 30
0.0
 11
89.324005126953
 21
123.024291992188
 31
0.0
  0
LINE
  5
19D
100
AcDbEntity
  8
0
  6
CONTINUOUS
 62
          15
100
AcDbLine
 10
89.324005126953
 20
109.856315612793
 30
0.0
 11
89.324005126953
 21
116.985374450684
 31
0.0
  0
LINE
  5
19E
100
AcDbEntity
  8
0
  6
CONTINUOUS
 62
          15
100
AcDbLine
 10
92.166870117188
 20
116.985374450684
 30
0.0
 11
92.166870117188
 21
123.024291992188
 31
0.0
  0
LINE
  5
19F
100
AcDbEntity
  8
0
  6
CONTINUOUS
 62
          15
100
AcDbLine
 10
92.166870117188
 20
108.474716186523
 30
0.0
 11
92.166870117188
 21
116.985374450684
 31
0.0
  0
LINE
  5
1A0
100
AcDbEntity
  8
0
  6
CONTINUOUS
 62
          15
100
AcDbLine
 10
95.13200378418
 20
116.985366821289
 30
0.0
 11
95.13200378418
 21
123.024291992188
 31
0.0
  0
LINE
  5
1A1
100
AcDbEntity
  8
0
  6
CONTINUOUS
 62
          15
100
AcDbLine
 10
95.13200378418
 20
106.814521789551
 30
0.0
 11
95.13200378418
 21
116.985366821289
 31
0.0
  0
LINE
  5
1A2
100
AcDbEntity
  8
0
  6
CONTINUOUS
 62
          15
100
AcDbLine
 10
200.126693725586
 20
110.492370605469
 30
0.0
 11
203.572967529297
 21
110.492370605469
 31
0.0
  0
LINE
  5
1A3
100
AcDbEntity
  8
0
  6
CONTINUOUS
 62
          15
100
AcDbLine
 10
200.641647338867
 20
109.819244384766
 30
0.0
 11
202.939178466797
 21
109.819244384766
 31
0.0
  0
LINE
  5
1A4
100
AcDbEntity
  8
0
  6
CONTINUOUS
 62
          15
100
AcDbLine
 10
201.156631469727
 20
109.146118164063
 30
0.0
 11
202.305374145508
 21
109.146118164063
 31
0.0
  0
LINE
  5
1A5
100
AcDbEntity
  8
0
  6
CONTINUOUS
 62
          15
100
AcDbLine
 10
201.671585083008
 20
112.471641540527
 30
0.0
 11
201.671585083008
 21
110.492370605469
 31
0.0
  0
LINE
  5
1A6
100
AcDbEntity
  8
0
  6
CONTINUOUS
 62
          15
100
AcDbLine
 10
199.322830200195
 20
106.287521362305
 30
0.0
 11
199.322830200195
 21
112.471641540527
 31
0.0
  0
LINE
  5
1A7
100
AcDbEntity
  8
0
  6
CONTINUOUS
 62
          15
100
AcDbLine
 10
199.322830200195
 20
112.471641540527
 30
0.0
 11
201.671585083008
 21
112.471641540527
 31
0.0
  0
LINE
  5
1A8
100
AcDbEntity
  8
0
  6
CONTINUOUS
 62
          15
100
AcDbLine
 10
151.040176391602
 20
113.643699645996
 30
0.0
 11
151.040176391602
 21
130.659820556641
 31
0.0
  0
LINE
  5
1A9
100
AcDbEntity
  8
0
  6
CONTINUOUS
 62
          15
100
AcDbLine
 10
215.302169799805
 20
133.280868530273
 30
0.0
 11
215.302169799805
 21
113.643699645996
 31
0.0
  0
LINE
  5
1AA
100
AcDbEntity
  8
0
  6
CONTINUOUS
 62
          15
100
AcDbLine
 10
215.302169799805
 20
113.643699645996
 30
0.0
 11
151.040176391602
 21
113.643699645996
 31
0.0
  0
LINE
  5
1AB
100
AcDbEntity
  8
0
  6
CONTINUOUS
 62
          15
100
AcDbLine
 10
194.905960083008
 20
138.929397583008
 30
0.0
 11
194.905960083008
 21
133.341400146484
 31
0.0
  0
LINE
  5
1AC
100
AcDbEntity
  8
0
  6
CONTINUOUS
 62
          15
100
AcDbLine
 10
194.905960083008
 20
138.929397583008
 30
0.0
 11
192.111968994141
 21
138.929397583008
 31
0.0
  0
LINE
  5
1AD
100
AcDbEntity
  8
0
  6
CONTINUOUS
 62
          15
100
AcDbLine
 10
192.111968994141
 20
133.341400146484
 30
0.0
 11
192.111968994141
 21
138.929397583008
 31
0.0
  0
LINE
  5
1AE
100
AcDbEntity
  8
0
  6
CONTINUOUS
 62
          15
100
AcDbLine
 10
192.111968994141
 20
133.341400146484
 30
0.0
 11
194.905960083008
 21
133.341400146484
 31
0.0
  0
LINE
  5
1AF
100
AcDbEntity
  8
0
  6
CONTINUOUS
 62
          15
100
AcDbLine
 10
194.905960083008
 20
137.53239440918
 30
0.0
 11
192.111968994141
 21
137.53239440918
 31
0.0
  0
LINE
  5
1B0
100
AcDbEntity
  8
0
  6
CONTINUOUS
 62
          15
100
AcDbLine
 10
210.69206237793
 20
135.017807006836
 30
0.0
 11
202.310073852539
 21
135.017807006836
 31
0.0
  0
LINE
  5
1B1
100
AcDbEntity
  8
0
  6
CONTINUOUS
 62
          15
100
AcDbLine
 10
210.69206237793
 20
135.017807006836
 30
0.0
 11
210.69206237793
 21
128.312194824219
 31
0.0
  0
LINE
  5
1B2
100
AcDbEntity
  8
0
  6
CONTINUOUS
 62
          15
100
AcDbLine
 10
202.310073852539
 20
128.312194824219
 30
0.0
 11
210.69206237793
 21
128.312194824219
 31
0.0
  0
LINE
  5
1B3
100
AcDbEntity
  8
0
  6
CONTINUOUS
 62
          15
100
AcDbLine
 10
202.310073852539
 20
128.312194824219
 30
0.0
 11
202.310073852539
 21
135.017807006836
 31
0.0
  0
LINE
  5
1B4
100
AcDbEntity
  8
0
  6
CONTINUOUS
 62
          15
100
AcDbLine
 10
183.338806152344
 20
131.804702758789
 30
0.0
 11
183.338806152344
 21
134.598693847656
 31
0.0
  0
LINE
  5
1B5
100
AcDbEntity
  8
0
  6
CONTINUOUS
 62
          15
100
AcDbLine
 10
183.338806152344
 20
131.804702758789
 30
0.0
 11
181.941802978516
 21
131.804702758789
 31
0.0
  0
LINE
  5
1B6
100
AcDbEntity
  8
0
  6
CONTINUOUS
 62
          15
100
AcDbLine
 10
181.941802978516
 20
134.598693847656
 30
0.0
 11
181.941802978516
 21
131.804702758789
 31
0.0
  0
LINE
  5
1B7
100
AcDbEntity
  8
0
  6
CONTINUOUS
 62
          15
100
AcDbLine
 10
181.941802978516
 20
134.598693847656
 30
0.0
 11
183.338806152344
 21
134.598693847656
 31
0.0
  0
LINE
  5
1B8
100
AcDbEntity
  8
0
  6
CONTINUOUS
 62
          15
100
AcDbLine
 10
182.640319824219
 20
134.598693847656
 30
0.0
 11
182.640319824219
 21
134.947952270508
 31
0.0
  0
LINE
  5
1B9
100
AcDbEntity
  8
0
  6
CONTINUOUS
 62
          15
100
AcDbLine
 10
182.640319824219
 20
134.598693847656
 30
0.0
 11
182.640319824219
 21
134.598693847656
 31
0.0
  0
LINE
  5
1BA
100
AcDbEntity
  8
0
  6
CONTINUOUS
 62
          15
100
AcDbLine
 10
182.640319824219
 20
134.947952270508
 30
0.0
 11
182.640319824219
 21
134.598693847656
 31
0.0
  0
LINE
  5
1BB
100
AcDbEntity
  8
0
  6
CONTINUOUS
 62
          15
100
AcDbLine
 10
182.640319824219
 20
134.947952270508
 30
0.0
 11
182.640319824219
 21
134.947952270508
 31
0.0
  0
LINE
  5
1BC
100
AcDbEntity
  8
0
  6
CONTINUOUS
 62
          15
100
AcDbLine
 10
182.640319824219
 20
131.455444335938
 30
0.0
 11
182.640319824219
 21
131.804702758789
 31
0.0
  0
LINE
  5
1BD
100
AcDbEntity
  8
0
  6
CONTINUOUS
 62
          15
100
AcDbLine
 10
182.640319824219
 20
131.455444335938
 30
0.0
 11
182.640319824219
 21
131.455444335938
 31
0.0
  0
LINE
  5
1BE
100
AcDbEntity
  8
0
  6
CONTINUOUS
 62
          15
100
AcDbLine
 10
182.640319824219
 20
131.804702758789
 30
0.0
 11
182.640319824219
 21
131.455444335938
 31
0.0
  0
LINE
  5
1BF
100
AcDbEntity
  8
0
  6
CONTINUOUS
 62
          15
100
AcDbLine
 10
182.640319824219
 20
131.804702758789
 30
0.0
 11
182.640319824219
 21
131.804702758789
 31
0.0
  0
LINE
  5
1C0
100
AcDbEntity
  8
0
  6
CONTINUOUS
 62
          15
100
AcDbLine
 10
183.338806152344
 20
132.503204345703
 30
0.0
 11
181.941802978516
 21
132.503204345703
 31
0.0
  0
LINE
  5
1C1
100
AcDbEntity
  8
0
  6
CONTINUOUS
 62
          15
100
AcDbLine
 10
186.747497558594
 20
131.804702758789
 30
0.0
 11
186.747497558594
 21
134.598693847656
 31
0.0
  0
LINE
  5
1C2
100
AcDbEntity
  8
0
  6
CONTINUOUS
 62
          15
100
AcDbLine
 10
186.747497558594
 20
131.804702758789
 30
0.0
 11
185.350479125977
 21
131.804702758789
 31
0.0
  0
LINE
  5
1C3
100
AcDbEntity
  8
0
  6
CONTINUOUS
 62
          15
100
AcDbLine
 10
185.350479125977
 20
134.598693847656
 30
0.0
 11
185.350479125977
 21
131.804702758789
 31
0.0
  0
LINE
  5
1C4
100
AcDbEntity
  8
0
  6
CONTINUOUS
 62
          15
100
AcDbLine
 10
185.350479125977
 20
134.598693847656
 30
0.0
 11
186.747497558594
 21
134.598693847656
 31
0.0
  0
LINE
  5
1C5
100
AcDbEntity
  8
0
  6
CONTINUOUS
 62
          15
100
AcDbLine
 10
186.04899597168
 20
134.598693847656
 30
0.0
 11
186.04899597168
 21
134.947952270508
 31
0.0
  0
LINE
  5
1C6
100
AcDbEntity
  8
0
  6
CONTINUOUS
 62
          15
100
AcDbLine
 10
186.04899597168
 20
134.598693847656
 30
0.0
 11
186.04899597168
 21
134.598693847656
 31
0.0
  0
LINE
  5
1C7
100
AcDbEntity
  8
0
  6
CONTINUOUS
 62
          15
100
AcDbLine
 10
186.04899597168
 20
134.947952270508
 30
0.0
 11
186.04899597168
 21
134.598693847656
 31
0.0
  0
LINE
  5
1C8
100
AcDbEntity
  8
0
  6
CONTINUOUS
 62
          15
100
AcDbLine
 10
186.04899597168
 20
134.947952270508
 30
0.0
 11
186.04899597168
 21
134.947952270508
 31
0.0
  0
LINE
  5
1C9
100
AcDbEntity
  8
0
  6
CONTINUOUS
 62
          15
100
AcDbLine
 10
186.04899597168
 20
131.455444335938
 30
0.0
 11
186.04899597168
 21
131.804702758789
 31
0.0
  0
LINE
  5
1CA
100
AcDbEntity
  8
0
  6
CONTINUOUS
 62
          15
100
AcDbLine
 10
186.04899597168
 20
131.455444335938
 30
0.0
 11
186.04899597168
 21
131.455444335938
 31
0.0
  0
LINE
  5
1CB
100
AcDbEntity
  8
0
  6
CONTINUOUS
 62
          15
100
AcDbLine
 10
186.04899597168
 20
131.804702758789
 30
0.0
 11
186.04899597168
 21
131.455444335938
 31
0.0
  0
LINE
  5
1CC
100
AcDbEntity
  8
0
  6
CONTINUOUS
 62
          15
100
AcDbLine
 10
186.04899597168
 20
131.804702758789
 30
0.0
 11
186.04899597168
 21
131.804702758789
 31
0.0
  0
LINE
  5
1CD
100
AcDbEntity
  8
0
  6
CONTINUOUS
 62
          15
100
AcDbLine
 10
186.747497558594
 20
132.503204345703
 30
0.0
 11
185.350479125977
 21
132.503204345703
 31
0.0
  0
LINE
  5
1CE
100
AcDbEntity
  8
0
  6
CONTINUOUS
 62
          15
100
AcDbLine
 10
187.445983886719
 20
134.598693847656
 30
0.0
 11
187.445983886719
 21
131.804702758789
 31
0.0
  0
LINE
  5
1CF
100
AcDbEntity
  8
0
  6
CONTINUOUS
 62
          15
100
AcDbLine
 10
187.445983886719
 20
134.598693847656
 30
0.0
 11
188.842987060547
 21
134.598693847656
 31
0.0
  0
LINE
  5
1D0
100
AcDbEntity
  8
0
  6
CONTINUOUS
 62
          15
100
AcDbLine
 10
188.842987060547
 20
131.804702758789
 30
0.0
 11
188.842987060547
 21
134.598693847656
 31
0.0
  0
LINE
  5
1D1
100
AcDbEntity
  8
0
  6
CONTINUOUS
 62
          15
100
AcDbLine
 10
188.842987060547
 20
131.804702758789
 30
0.0
 11
187.445983886719
 21
131.804702758789
 31
0.0
  0
LINE
  5
1D2
100
AcDbEntity
  8
0
  6
CONTINUOUS
 62
          15
100
AcDbLine
 10
188.144500732422
 20
131.804702758789
 30
0.0
 11
188.144500732422
 21
131.455444335938
 31
0.0
  0
LINE
  5
1D3
100
AcDbEntity
  8
0
  6
CONTINUOUS
 62
          15
100
AcDbLine
 10
188.144500732422
 20
131.804702758789
 30
0.0
 11
188.144500732422
 21
131.804702758789
 31
0.0
  0
LINE
  5
1D4
100
AcDbEntity
  8
0
  6
CONTINUOUS
 62
          15
100
AcDbLine
 10
188.144500732422
 20
131.455444335938
 30
0.0
 11
188.144500732422
 21
131.804702758789
 31
0.0
  0
LINE
  5
1D5
100
AcDbEntity
  8
0
  6
CONTINUOUS
 62
          15
100
AcDbLine
 10
188.144500732422
 20
131.455444335938
 30
0.0
 11
188.144500732422
 21
131.455444335938
 31
0.0
  0
LINE
  5
1D6
100
AcDbEntity
  8
0
  6
CONTINUOUS
 62
          15
100
AcDbLine
 10
188.144500732422
 20
134.947952270508
 30
0.0
 11
188.144500732422
 21
134.598693847656
 31
0.0
  0
LINE
  5
1D7
100
AcDbEntity
  8
0
  6
CONTINUOUS
 62
          15
100
AcDbLine
 10
188.144500732422
 20
134.947952270508
 30
0.0
 11
188.144500732422
 21
134.947952270508
 31
0.0
  0
LINE
  5
1D8
100
AcDbEntity
  8
0
  6
CONTINUOUS
 62
          15
100
AcDbLine
 10
188.144500732422
 20
134.598693847656
 30
0.0
 11
188.144500732422
 21
134.947952270508
 31
0.0
  0
LINE
  5
1D9
100
AcDbEntity
  8
0
  6
CONTINUOUS
 62
          15
100
AcDbLine
 10
188.144500732422
 20
134.598693847656
 30
0.0
 11
188.144500732422
 21
134.598693847656
 31
0.0
  0
LINE
  5
1DA
100
AcDbEntity
  8
0
  6
CONTINUOUS
 62
          15
100
AcDbLine
 10
187.445983886719
 20
133.900207519531
 30
0.0
 11
188.842987060547
 21
133.900207519531
 31
0.0
  0
LINE
  5
1DB
100
AcDbEntity
  8
0
  6
CONTINUOUS
 62
          15
100
AcDbLine
 10
157.410491943359
 20
124.400596618652
 30
0.0
 11
164.395477294922
 21
124.400596618652
 31
0.0
  0
LINE
  5
1DC
100
AcDbEntity
  8
0
  6
CONTINUOUS
 62
          15
100
AcDbLine
 10
157.410491943359
 20
124.400596618652
 30
0.0
 11
157.410491943359
 21
135.544479370117
 31
0.0
  0
LINE
  5
1DD
100
AcDbEntity
  8
0
  6
CONTINUOUS
 62
          15
100
AcDbLine
 10
164.395477294922
 20
138.590240478516
 30
0.0
 11
164.395477294922
 21
124.400596618652
 31
0.0
  0
LINE
  5
1DE
100
AcDbEntity
  8
0
  6
CONTINUOUS
 62
          15
100
AcDbLine
 10
199.516067504883
 20
136.275100708008
 30
0.0
 11
210.69206237793
 21
136.275100708008
 31
0.0
  0
LINE
  5
1DF
100
AcDbEntity
  8
0
  6
CONTINUOUS
 62
          15
100
AcDbLine
 10
199.516067504883
 20
136.275100708008
 30
0.0
 11
199.516067504883
 21
140.077682495117
 31
0.0
  0
LINE
  5
1E0
100
AcDbEntity
  8
0
  6
CONTINUOUS
 62
          15
100
AcDbLine
 10
198.705810546875
 20
120.628692626953
 30
0.0
 11
213.905166625977
 21
120.628692626953
 31
0.0
  0
LINE
  5
1E1
100
AcDbEntity
  8
0
  6
CONTINUOUS
 62
          15
100
AcDbLine
 10
198.705810546875
 20
120.628692626953
 30
0.0
 11
198.705810546875
 21
140.255874633789
 31
0.0
  0
LINE
  5
1E2
100
AcDbEntity
  8
0
  6
CONTINUOUS
 62
          15
100
AcDbLine
 10
213.905166625977
 20
134.274841308594
 30
0.0
 11
213.905166625977
 21
120.628692626953
 31
0.0
  0
ARC
  5
1E3
100
AcDbEntity
  8
0
  6
CONTINUOUS
 62
          15
100
AcDbCircle
 10
206.221664428711
 20
119.930191040039
 30
0.0
 40
5.420360088348
100
AcDbArc
 50
224.999999658377
 51
315.000002162855
  0
LINE
  5
1E4
100
AcDbEntity
  8
0
  6
CONTINUOUS
 62
          15
100
AcDbLine
 10
197.83967590332
 20
119.762557983398
 30
0.0
 11
214.785278320313
 21
119.762557983398
 31
0.0
  0
LINE
  5
1E5
100
AcDbEntity
  8
0
  6
CONTINUOUS
 62
          15
100
AcDbLine
 10
197.83967590332
 20
119.762557983398
 30
0.0
 11
197.83967590332
 21
140.433547973633
 31
0.0
  0
LINE
  5
1E6
100
AcDbEntity
  8
0
  6
CONTINUOUS
 62
          15
100
AcDbLine
 10
214.785278320313
 20
133.664367675781
 30
0.0
 11
214.785278320313
 21
119.762557983398
 31
0.0
  0
ARC
  5
1E7
100
AcDbEntity
  8
0
  6
CONTINUOUS
 62
          15
100
AcDbCircle
 10
193.117813110352
 20
109.27108001709
 30
0.0
 40
11.525250434875
100
AcDbArc
 50
36.249996170697
 51
65.750003252616
  0
ARC
  5
1E8
100
AcDbEntity
  8
0
  6
CONTINUOUS
 62
          15
100
AcDbCircle
 10
219.143920898438
 20
109.27108001709
 30
0.0
 40
11.35760974884
100
AcDbArc
 50
112.500011668334
 51
142.999996010783
  0
LINE
  5
1E9
100
AcDbEntity
  8
0
  6
CONTINUOUS
 62
          15
100
AcDbLine
 10
164.758697509766
 20
121.257347106934
 30
0.0
 11
172.973068237305
 21
121.257347106934
 31
0.0
  0
LINE
  5
1EA
100
AcDbEntity
  8
0
  6
CONTINUOUS
 62
          15
100
AcDbLine
 10
164.758697509766
 20
121.257347106934
 30
0.0
 11
164.758697509766
 21
129.471710205078
 31
0.0
  0
LINE
  5
1EB
100
AcDbEntity
  8
0
  6
CONTINUOUS
 62
          15
100
AcDbLine
 10
172.973068237305
 20
129.471710205078
 30
0.0
 11
164.758697509766
 21
129.471710205078
 31
0.0
  0
LINE
  5
1EC
100
AcDbEntity
  8
0
  6
CONTINUOUS
 62
          15
100
AcDbLine
 10
172.973068237305
 20
129.471710205078
 30
0.0
 11
172.973068237305
 21
121.257347106934
 31
0.0
  0
LINE
  5
1ED
100
AcDbEntity
  8
0
  6
CONTINUOUS
 62
          15
100
AcDbLine
 10
173.014984130859
 20
121.257347106934
 30
0.0
 11
181.229339599609
 21
121.257347106934
 31
0.0
  0
LINE
  5
1EE
100
AcDbEntity
  8
0
  6
CONTINUOUS
 62
          15
100
AcDbLine
 10
173.014984130859
 20
121.257347106934
 30
0.0
 11
173.014984130859
 21
129.471710205078
 31
0.0
  0
LINE
  5
1EF
100
AcDbEntity
  8
0
  6
CONTINUOUS
 62
          15
100
AcDbLine
 10
181.229339599609
 20
129.471710205078
 30
0.0
 11
173.014984130859
 21
129.471710205078
 31
0.0
  0
LINE
  5
1F0
100
AcDbEntity
  8
0
  6
CONTINUOUS
 62
          15
100
AcDbLine
 10
181.229339599609
 20
129.471710205078
 30
0.0
 11
181.229339599609
 21
121.257347106934
 31
0.0
  0
LINE
  5
1F1
100
AcDbEntity
  8
0
  6
CONTINUOUS
 62
          15
100
AcDbLine
 10
178.602981567383
 20
131.483383178711
 30
0.0
 11
178.602981567383
 21
137.252990722656
 31
0.0
  0
LINE
  5
1F2
100
AcDbEntity
  8
0
  6
CONTINUOUS
 62
          15
100
AcDbLine
 10
178.602981567383
 20
131.483383178711
 30
0.0
 11
167.077728271484
 21
131.483383178711
 31
0.0
  0
LINE
  5
1F3
100
AcDbEntity
  8
0
  6
CONTINUOUS
 62
          15
100
AcDbLine
 10
167.077728271484
 20
137.252990722656
 30
0.0
 11
167.077728271484
 21
131.483383178711
 31
0.0
  0
LINE
  5
1F4
100
AcDbEntity
  8
0
  6
CONTINUOUS
 62
          15
100
AcDbLine
 10
167.077728271484
 20
137.252990722656
 30
0.0
 11
178.602981567383
 21
137.252990722656
 31
0.0
  0
LINE
  5
1F5
100
AcDbEntity
  8
0
  6
CONTINUOUS
 62
          15
100
AcDbLine
 10
166.46305847168
 20
134.542816162109
 30
0.0
 11
166.46305847168
 21
135.311172485352
 31
0.0
  0
LINE
  5
1F6
100
AcDbEntity
  8
0
  6
CONTINUOUS
 62
          15
100
AcDbLine
 10
166.46305847168
 20
138.384567260742
 30
0.0
 11
166.46305847168
 21
137.6162109375
 31
0.0
  0
LINE
  5
1F7
100
AcDbEntity
  8
0
  6
CONTINUOUS
 62
          15
100
AcDbLine
 10
165.904251098633
 20
137.6162109375
 30
0.0
 11
165.904251098633
 21
135.311172485352
 31
0.0
  0
LINE
  5
1F8
100
AcDbEntity
  8
0
  6
CONTINUOUS
 62
          15
100
AcDbLine
 10
165.904251098633
 20
137.6162109375
 30
0.0
 11
167.021850585938
 21
137.6162109375
 31
0.0
  0
LINE
  5
1F9
100
AcDbEntity
  8
0
  6
CONTINUOUS
 62
          15
100
AcDbLine
 10
167.021850585938
 20
135.311172485352
 30
0.0
 11
167.021850585938
 21
137.6162109375
 31
0.0
  0
LINE
  5
1FA
100
AcDbEntity
  8
0
  6
CONTINUOUS
 62
          15
100
AcDbLine
 10
167.021850585938
 20
135.311172485352
 30
0.0
 11
165.904251098633
 21
135.311172485352
 31
0.0
  0
LINE
  5
1FB
100
AcDbEntity
  8
0
  6
CONTINUOUS
 62
          15
100
AcDbLine
 10
167.021850585938
 20
137.057418823242
 30
0.0
 11
165.904251098633
 21
137.057418823242
 31
0.0
  0
LINE
  5
1FC
100
AcDbEntity
  8
0
  6
CONTINUOUS
 62
          15
100
AcDbLine
 10
167.021850585938
 20
136.847869873047
 30
0.0
 11
165.904251098633
 21
136.847869873047
 31
0.0
  0
LINE
  5
1FD
100
AcDbEntity
  8
0
  6
CONTINUOUS
 62
          15
100
AcDbLine
 10
181.271255493164
 20
121.257347106934
 30
0.0
 11
189.485610961914
 21
121.257347106934
 31
0.0
  0
LINE
  5
1FE
100
AcDbEntity
  8
0
  6
CONTINUOUS
 62
          15
100
AcDbLine
 10
181.271255493164
 20
121.257347106934
 30
0.0
 11
181.271255493164
 21
129.471710205078
 31
0.0
  0
LINE
  5
1FF
100
AcDbEntity
  8
0
  6
CONTINUOUS
 62
          15
100
AcDbLine
 10
189.485610961914
 20
129.471710205078
 30
0.0
 11
181.271255493164
 21
129.471710205078
 31
0.0
  0
LINE
  5
200
100
AcDbEntity
  8
0
  6
CONTINUOUS
 62
          15
100
AcDbLine
 10
189.485610961914
 20
129.471710205078
 30
0.0
 11
189.485610961914
 21
121.257347106934
 31
0.0
  0
LINE
  5
201
100
AcDbEntity
  8
0
  6
CONTINUOUS
 62
          15
100
AcDbLine
 10
189.52751159668
 20
121.257347106934
 30
0.0
 11
197.741882324219
 21
121.257347106934
 31
0.0
  0
LINE
  5
202
100
AcDbEntity
  8
0
  6
CONTINUOUS
 62
          15
100
AcDbLine
 10
189.52751159668
 20
121.257347106934
 30
0.0
 11
189.52751159668
 21
129.471710205078
 31
0.0
  0
LINE
  5
203
100
AcDbEntity
  8
0
  6
CONTINUOUS
 62
          15
100
AcDbLine
 10
197.741882324219
 20
129.471710205078
 30
0.0
 11
189.52751159668
 21
129.471710205078
 31
0.0
  0
LINE
  5
204
100
AcDbEntity
  8
0
  6
CONTINUOUS
 62
          15
100
AcDbLine
 10
197.741882324219
 20
129.471710205078
 30
0.0
 11
197.741882324219
 21
121.257347106934
 31
0.0
  0
LINE
  5
205
100
AcDbEntity
  8
0
  6
CONTINUOUS
 62
          15
100
AcDbLine
 10
202.505645751953
 20
125.238800048828
 30
0.0
 11
200.298385620117
 21
125.238800048828
 31
0.0
  0
LINE
  5
206
100
AcDbEntity
  8
0
  6
CONTINUOUS
 62
          15
100
AcDbLine
 10
200.298385620117
 20
125.238800048828
 30
0.0
 11
199.208724975586
 21
123.310935974121
 31
0.0
  0
LINE
  5
207
100
AcDbEntity
  8
0
  6
CONTINUOUS
 62
          15
100
AcDbLine
 10
199.208724975586
 20
123.310935974121
 30
0.0
 11
200.298385620117
 21
121.383071899414
 31
0.0
  0
LINE
  5
208
100
AcDbEntity
  8
0
  6
CONTINUOUS
 62
          15
100
AcDbLine
 10
200.298385620117
 20
121.383071899414
 30
0.0
 11
202.505645751953
 21
121.383071899414
 31
0.0
  0
LINE
  5
209
100
AcDbEntity
  8
0
  6
CONTINUOUS
 62
          15
100
AcDbLine
 10
202.505645751953
 20
121.383071899414
 30
0.0
 11
203.595306396484
 21
123.310935974121
 31
0.0
  0
LINE
  5
20A
100
AcDbEntity
  8
0
  6
CONTINUOUS
 62
          15
100
AcDbLine
 10
203.595306396484
 20
123.310935974121
 30
0.0
 11
202.505645751953
 21
125.238800048828
 31
0.0
  0
CIRCLE
  5
20B
100
AcDbEntity
  8
0
  6
CONTINUOUS
 62
          15
100
AcDbCircle
 10
201.40202331543
 20
123.310935974121
 30
0.0
 40
2.472690105438
  0
LINE
  5
20C
100
AcDbEntity
  8
0
  6
CONTINUOUS
 62
          15
100
AcDbLine
 10
160.763290405273
 20
122.668319702148
 30
0.0
 11
160.763290405273
 21
122.668319702148
 31
0.0
  0
LINE
  5
20D
100
AcDbEntity
  8
0
  6
CONTINUOUS
 62
          15
100
AcDbLine
 10
160.763290405273
 20
122.668319702148
 30
0.0
 11
160.763290405273
 21
124.065315246582
 31
0.0
  0
LINE
  5
20E
100
AcDbEntity
  8
0
  6
CONTINUOUS
 62
          15
100
AcDbLine
 10
160.763290405273
 20
124.065315246582
 30
0.0
 11
160.763290405273
 21
124.065315246582
 31
0.0
  0
LINE
  5
20F
100
AcDbEntity
  8
0
  6
CONTINUOUS
 62
          15
100
AcDbLine
 10
160.763290405273
 20
124.065315246582
 30
0.0
 11
160.763290405273
 21
122.668319702148
 31
0.0
  0
LINE
  5
210
100
AcDbEntity
  8
0
  6
CONTINUOUS
 62
          15
100
AcDbLine
 10
161.112533569336
 20
123.366813659668
 30
0.0
 11
161.461791992188
 21
123.366813659668
 31
0.0
  0
LINE
  5
211
100
AcDbEntity
  8
0
  6
CONTINUOUS
 62
          15
100
AcDbLine
 10
161.112533569336
 20
123.366813659668
 30
0.0
 11
161.112533569336
 21
123.366813659668
 31
0.0
  0
LINE
  5
212
100
AcDbEntity
  8
0
  6
CONTINUOUS
 62
          15
100
AcDbLine
 10
161.461791992188
 20
123.366813659668
 30
0.0
 11
161.112533569336
 21
123.366813659668
 31
0.0
  0
LINE
  5
213
100
AcDbEntity
  8
0
  6
CONTINUOUS
 62
          15
100
AcDbLine
 10
161.461791992188
 20
123.366813659668
 30
0.0
 11
161.461791992188
 21
123.366813659668
 31
0.0
  0
LINE
  5
214
100
AcDbEntity
  8
0
  6
CONTINUOUS
 62
          15
100
AcDbLine
 10
160.763290405273
 20
123.366813659668
 30
0.0
 11
160.414047241211
 21
123.366813659668
 31
0.0
  0
LINE
  5
215
100
AcDbEntity
  8
0
  6
CONTINUOUS
 62
          15
100
AcDbLine
 10
160.763290405273
 20
123.366813659668
 30
0.0
 11
160.763290405273
 21
123.366813659668
 31
0.0
  0
LINE
  5
216
100
AcDbEntity
  8
0
  6
CONTINUOUS
 62
          15
100
AcDbLine
 10
160.414047241211
 20
123.366813659668
 30
0.0
 11
160.763290405273
 21
123.366813659668
 31
0.0
  0
LINE
  5
217
100
AcDbEntity
  8
0
  6
CONTINUOUS
 62
          15
100
AcDbLine
 10
160.414047241211
 20
123.366813659668
 30
0.0
 11
160.414047241211
 21
123.366813659668
 31
0.0
  0
LINE
  5
218
100
AcDbEntity
  8
0
  6
CONTINUOUS
 62
          15
100
AcDbLine
 10
161.112533569336
 20
124.065315246582
 30
0.0
 11
161.112533569336
 21
122.668319702148
 31
0.0
  0
LINE
  5
219
100
AcDbEntity
  8
0
  6
CONTINUOUS
 62
          15
100
AcDbLine
 10
195.744171142578
 20
131.245895385742
 30
0.0
 11
195.744171142578
 21
131.245895385742
 31
0.0
  0
LINE
  5
21A
100
AcDbEntity
  8
0
  6
CONTINUOUS
 62
          15
100
AcDbLine
 10
195.744171142578
 20
131.245895385742
 30
0.0
 11
195.744171142578
 21
129.848892211914
 31
0.0
  0
LINE
  5
21B
100
AcDbEntity
  8
0
  6
CONTINUOUS
 62
          15
100
AcDbLine
 10
195.744171142578
 20
129.848892211914
 30
0.0
 11
195.744171142578
 21
129.848892211914
 31
0.0
  0
LINE
  5
21C
100
AcDbEntity
  8
0
  6
CONTINUOUS
 62
          15
100
AcDbLine
 10
195.744171142578
 20
129.848892211914
 30
0.0
 11
195.744171142578
 21
131.245895385742
 31
0.0
  0
LINE
  5
21D
100
AcDbEntity
  8
0
  6
CONTINUOUS
 62
          15
100
AcDbLine
 10
195.045684814453
 20
131.245895385742
 30
0.0
 11
195.045684814453
 21
131.245895385742
 31
0.0
  0
LINE
  5
21E
100
AcDbEntity
  8
0
  6
CONTINUOUS
 62
          15
100
AcDbLine
 10
195.045684814453
 20
131.245895385742
 30
0.0
 11
195.045684814453
 21
129.848892211914
 31
0.0
  0
LINE
  5
21F
100
AcDbEntity
  8
0
  6
CONTINUOUS
 62
          15
100
AcDbLine
 10
195.045684814453
 20
129.848892211914
 30
0.0
 11
195.045684814453
 21
129.848892211914
 31
0.0
  0
LINE
  5
220
100
AcDbEntity
  8
0
  6
CONTINUOUS
 62
          15
100
AcDbLine
 10
195.045684814453
 20
129.848892211914
 30
0.0
 11
195.045684814453
 21
131.245895385742
 31
0.0
  0
LINE
  5
221
100
AcDbEntity
  8
0
  6
CONTINUOUS
 62
          15
100
AcDbLine
 10
196.09342956543
 20
130.547393798828
 30
0.0
 11
195.744171142578
 21
130.547393798828
 31
0.0
  0
LINE
  5
222
100
AcDbEntity
  8
0
  6
CONTINUOUS
 62
          15
100
AcDbLine
 10
196.09342956543
 20
130.547393798828
 30
0.0
 11
196.09342956543
 21
130.547393798828
 31
0.0
  0
LINE
  5
223
100
AcDbEntity
  8
0
  6
CONTINUOUS
 62
          15
100
AcDbLine
 10
195.744171142578
 20
130.547393798828
 30
0.0
 11
196.09342956543
 21
130.547393798828
 31
0.0
  0
LINE
  5
224
100
AcDbEntity
  8
0
  6
CONTINUOUS
 62
          15
100
AcDbLine
 10
195.744171142578
 20
130.547393798828
 30
0.0
 11
195.744171142578
 21
130.547393798828
 31
0.0
  0
LINE
  5
225
100
AcDbEntity
  8
0
  6
CONTINUOUS
 62
          15
100
AcDbLine
 10
195.045684814453
 20
130.547393798828
 30
0.0
 11
194.696426391602
 21
130.547393798828
 31
0.0
  0
LINE
  5
226
100
AcDbEntity
  8
0
  6
CONTINUOUS
 62
          15
100
AcDbLine
 10
195.045684814453
 20
130.547393798828
 30
0.0
 11
195.045684814453
 21
130.547393798828
 31
0.0
  0
LINE
  5
227
100
AcDbEntity
  8
0
  6
CONTINUOUS
 62
          15
100
AcDbLine
 10
194.696426391602
 20
130.547393798828
 30
0.0
 11
195.045684814453
 21
130.547393798828
 31
0.0
  0
LINE
  5
228
100
AcDbEntity
  8
0
  6
CONTINUOUS
 62
          15
100
AcDbLine
 10
194.696426391602
 20
130.547393798828
 30
0.0
 11
194.696426391602
 21
130.547393798828
 31
0.0
  0
TEXT
  5
229
100
AcDbEntity
  8
0
  6
CONTINUOUS
 62
          15
100
AcDbText
 10
190.295867905633
 20
118.952294752002
 30
0.0
 40
1.089660048485
  1
1
 50
0.000002504478
 41
0.999999931625
  7
TXT
100
AcDbText
  0
TEXT
  5
22A
100
AcDbEntity
  8
0
  6
CONTINUOUS
 62
          15
100
AcDbText
 10
188.759170517937
 20
116.018594190478
 30
0.0
 40
1.089660048485
  1
SIGNALS
 50
0.000002504478
 41
1.037037026907
  7
TXT
100
AcDbText
  0
TEXT
  5
22B
100
AcDbEntity
  8
0
  6
CONTINUOUS
 62
          15
100
AcDbText
 10
187.780166611696
 20
118.95494247973
 30
0.0
 40
1.088999986649
  1
1
 50
0.000002504478
 41
1.000000013683
  7
TXT
100
AcDbText
  0
TEXT
  5
22C
100
AcDbEntity
  8
0
  6
CONTINUOUS
 62
          15
100
AcDbText
 10
193.229583725945
 20
118.952294752002
 30
0.0
 40
1.089660048485
  1
2
 50
0.000002504478
 41
0.999999931625
  7
TXT
100
AcDbText
  0
TEXT
  5
22D
100
AcDbEntity
  8
0
  6
CONTINUOUS
 62
          15
100
AcDbText
 10
195.883865342156
 20
118.952294752002
 30
0.0
 40
1.089660048485
  1
2
 50
0.000002504478
 41
0.999999931625
  7
TXT
100
AcDbText
  0
TEXT
  5
22E
100
AcDbEntity
  8
0
  6
CONTINUOUS
 62
          15
100
AcDbText
 10
172.274588182569
 20
116.158294663445
 30
0.0
 40
1.089660048485
  1
MUTE
 50
90.000002504478
 41
1.074074026465
  7
TXT
100
AcDbText
  0
TEXT
  5
22F
100
AcDbEntity
  8
0
  6
CONTINUOUS
 62
          15
100
AcDbText
 10
174.926672533154
 20
116.160934433953
 30
0.0
 40
1.089660048485
  1
TEST
 50
90.000002504478
 41
1.074074026465
  7
TXT
100
AcDbText
  0
TEXT
  5
230
100
AcDbEntity
  8
0
  6
CONTINUOUS
 62
          15
100
AcDbText
 10
177.722891405225
 20
116.158294663445
 30
0.0
 40
1.089660048485
  1
COM
 50
90.000002504478
 41
1.111111053372
  7
TXT
100
AcDbText
  0
TEXT
  5
231
100
AcDbEntity
  8
0
  6
CONTINUOUS
 62
          15
100
AcDbText
 10
180.516882494092
 20
116.158294663445
 30
0.0
 40
1.089660048485
  1
AUD
 50
90.000002504478
 41
1.111111053372
  7
TXT
100
AcDbText
  0
TEXT
  5
232
100
AcDbEntity
  8
0
  6
CONTINUOUS
 62
          15
100
AcDbText
 10
183.310873582959
 20
116.158294663445
 30
0.0
 40
1.089660048485
  1
+Ve
 50
90.000002504478
 41
1.111111053372
  7
TXT
100
AcDbText
  0
TEXT
  5
233
100
AcDbEntity
  8
0
  6
CONTINUOUS
 62
          15
100
AcDbText
 10
186.104879930615
 20
116.158294663445
 30
0.0
 40
1.089660048485
  1
-Ve
 50
90.000002504478
 41
1.111111053372
  7
TXT
100
AcDbText
  0
TEXT
  5
234
100
AcDbEntity
  8
0
  6
CONTINUOUS
 62
          15
100
AcDbText
 10
165.149871811891
 20
116.158296361566
 30
0.0
 40
1.088999986649
  1
RELAY
 50
0.000002504478
 41
0.95454543713
  7
TXT
100
AcDbText
  0
TEXT
  5
235
100
AcDbEntity
  8
0
  6
CONTINUOUS
 62
          15
100
AcDbText
 10
156.628173817133
 20
119.930193826556
 30
0.0
 40
0.838199973106
  1
SDX15PS
 50
0.000002504478
 41
1.037037102221
  7
TXT
100
AcDbText
  0
TEXT
  5
236
100
AcDbEntity
  8
0
  6
CONTINUOUS
 62
          15
100
AcDbText
 10
155.929672230219
 20
117.275896951556
 30
0.0
 40
0.838199973106
  1
SERIAL No
 50
0.000002504478
 41
1.027777848888
  7
TXT
100
AcDbText
  0
TEXT
  5
237
100
AcDbEntity
  8
0
  6
CONTINUOUS
 62
          15
100
AcDbText
 10
156.488479603266
 20
118.672900125384
 30
0.0
 40
0.838199973106
  1
ISSUE B
 50
0.000002504478
 41
1.037037102221
  7
TXT
100
AcDbText
  0
LINE
  5
238
100
AcDbEntity
  8
0
  6
CONTINUOUS
 62
          15
100
AcDbLine
 10
164.790176391602
 20
114.916076660156
 30
0.0
 11
197.790176391602
 21
114.916076660156
 31
0.0
  0
LINE
  5
239
100
AcDbEntity
  8
0
  6
CONTINUOUS
 62
          15
100
AcDbLine
 10
154.637420654297
 20
114.916076660156
 30
0.0
 11
164.199783325195
 21
114.916076660156
 31
0.0
  0
LINE
  5
23A
100
AcDbEntity
  8
0
  6
CONTINUOUS
 62
          15
100
AcDbLine
 10
197.790176391602
 20
121.257347106934
 30
0.0
 11
197.790176391602
 21
114.916076660156
 31
0.0
  0
LINE
  5
23B
100
AcDbEntity
  8
0
  6
CONTINUOUS
 62
          15
100
AcDbLine
 10
192.290176391602
 20
121.257347106934
 30
0.0
 11
192.290176391602
 21
118.012451171875
 31
0.0
  0
LINE
  5
23C
100
AcDbEntity
  8
0
  6
CONTINUOUS
 62
          15
100
AcDbLine
 10
186.790176391602
 20
121.257347106934
 30
0.0
 11
186.790176391602
 21
114.916076660156
 31
0.0
  0
LINE
  5
23D
100
AcDbEntity
  8
0
  6
CONTINUOUS
 62
          15
100
AcDbLine
 10
164.790176391602
 20
121.257347106934
 30
0.0
 11
164.790176391602
 21
114.916076660156
 31
0.0
  0
LINE
  5
23E
100
AcDbEntity
  8
0
  6
CONTINUOUS
 62
          15
100
AcDbLine
 10
170.290176391602
 20
121.257347106934
 30
0.0
 11
170.290176391602
 21
114.916076660156
 31
0.0
  0
LINE
  5
23F
100
AcDbEntity
  8
0
  6
CONTINUOUS
 62
          15
100
AcDbLine
 10
178.540176391602
 20
121.257347106934
 30
0.0
 11
178.540176391602
 21
114.916076660156
 31
0.0
  0
LINE
  5
240
100
AcDbEntity
  8
0
  6
CONTINUOUS
 62
          15
100
AcDbLine
 10
186.790176391602
 20
118.012451171875
 30
0.0
 11
197.790176391602
 21
118.012451171875
 31
0.0
  0
LINE
  5
241
100
AcDbEntity
  8
0
  6
CONTINUOUS
 62
          15
100
AcDbLine
 10
154.637420654297
 20
122.185836791992
 30
0.0
 11
164.199783325195
 21
122.185836791992
 31
0.0
  0
LINE
  5
242
100
AcDbEntity
  8
0
  6
CONTINUOUS
 62
          15
100
AcDbLine
 10
164.199783325195
 20
122.185836791992
 30
0.0
 11
164.199783325195
 21
114.916076660156
 31
0.0
  0
LINE
  5
243
100
AcDbEntity
  8
0
  6
CONTINUOUS
 62
          15
100
AcDbLine
 10
154.637420654297
 20
122.185836791992
 30
0.0
 11
154.637420654297
 21
114.916076660156
 31
0.0
  0
TEXT
  5
244
100
AcDbEntity
  8
0
  6
CONTINUOUS
 62
          15
100
AcDbText
 10
203.66145323279
 20
126.224595800042
 30
0.0
 40
1.088999986649
  1
L
 50
0.000002504478
 41
0.95454543713
  7
TXT
100
AcDbText
  0
TEXT
  5
245
100
AcDbEntity
  8
0
  6
CONTINUOUS
 62
          15
100
AcDbText
 10
209.183395371462
 20
126.089975133538
 30
0.0
 40
1.088999986649
  1
N
 50
0.000002504478
 41
0.95454543713
  7
TXT
100
AcDbText
  0
ELLIPSE
  5
246
100
AcDbEntity
  8
0
  6
CONTINUOUS
 62
          15
100
AcDbEllipse
 10
184.616027832031
 20
122.446113586426
 30
0.0
 11
37.125
 21
0.0
 31
0.0
210
0.0
220
0.0
230
1.0
 40
0.518518518519
 41
0.0
 42
6.2831853071795862
  0
LINE
  5
247
100
AcDbEntity
  8
0
  6
CONTINUOUS
 62
          15
100
AcDbLine
 10
205.202941894531
 20
125.385063171387
 30
0.0
 11
208.649200439453
 21
125.385063171387
 31
0.0
  0
LINE
  5
248
100
AcDbEntity
  8
0
  6
CONTINUOUS
 62
          15
100
AcDbLine
 10
205.717895507813
 20
124.711936950684
 30
0.0
 11
208.015411376953
 21
124.711936950684
 31
0.0
  0
LINE
  5
249
100
AcDbEntity
  8
0
  6
CONTINUOUS
 62
          15
100
AcDbLine
 10
206.232864379883
 20
124.03881072998
 30
0.0
 11
207.381607055664
 21
124.03881072998
 31
0.0
  0
LINE
  5
24A
100
AcDbEntity
  8
0
  6
CONTINUOUS
 62
          15
100
AcDbLine
 10
206.747817993164
 20
128.280426025391
 30
0.0
 11
206.747817993164
 21
125.385063171387
 31
0.0
  0
LINE
  5
24B
100
AcDbEntity
  8
0
  6
CONTINUOUS
 62
          15
100
AcDbLine
 10
164.758697509766
 20
125.196113586426
 30
0.0
 11
197.741882324219
 21
125.196113586426
 31
0.0
  0
LINE
  5
24C
100
AcDbEntity
  8
0
  6
CONTINUOUS
 62
          15
100
AcDbLine
 10
169.475769042969
 20
126.631256103516
 30
0.0
 11
168.522323608398
 21
127.584693908691
 31
0.0
  0
ELLIPSE
  5
24D
100
AcDbEntity
  8
0
  6
CONTINUOUS
 62
          15
100
AcDbEllipse
 10
169.0107421875
 20
127.113693237305
 30
0.0
 11
-0.8458054131619205
 21
-0.0264423747198357
 31
0.0
210
0.0
220
0.0
230
1.0
 40
0.692971420477
 41
0.0
 42
6.2831853071795862
  0
LINE
  5
24E
100
AcDbEntity
  8
0
  6
CONTINUOUS
 62
          15
100
AcDbLine
 10
166.67253112793
 20
126.650207519531
 30
0.0
 11
165.719085693359
 21
127.603637695313
 31
0.0
  0
ELLIPSE
  5
24F
100
AcDbEntity
  8
0
  6
CONTINUOUS
 62
          15
100
AcDbEllipse
 10
166.207504272461
 20
127.13264465332
 30
0.0
 11
-0.8458054131619205
 21
-0.0264423747198357
 31
0.0
210
0.0
220
0.0
230
1.0
 40
0.692971420477
 41
0.0
 42
6.2831853071795862
  0
LINE
  5
250
100
AcDbEntity
  8
0
  6
CONTINUOUS
 62
          15
100
AcDbLine
 10
172.170257568359
 20
126.650207519531
 30
0.0
 11
171.216827392578
 21
127.603637695313
 31
0.0
  0
ELLIPSE
  5
251
100
AcDbEntity
  8
0
  6
CONTINUOUS
 62
          15
100
AcDbEllipse
 10
171.70524597168
 20
127.13264465332
 30
0.0
 11
-0.8458054131619205
 21
-0.0264423747198357
 31
0.0
210
0.0
220
0.0
230
1.0
 40
0.692971420477
 41
0.0
 42
6.2831853071795862
  0
LINE
  5
252
100
AcDbEntity
  8
0
  6
CONTINUOUS
 62
          15
100
AcDbLine
 10
174.866256713867
 20
126.650207519531
 30
0.0
 11
173.912826538086
 21
127.603637695313
 31
0.0
  0
ELLIPSE
  5
253
100
AcDbEntity
  8
0
  6
CONTINUOUS
 62
          15
100
AcDbEllipse
 10
174.401245117188
 20
127.13264465332
 30
0.0
 11
-0.8458054131619205
 21
-0.0264423747198357
 31
0.0
210
0.0
220
0.0
230
1.0
 40
0.692971420477
 41
0.0
 42
6.2831853071795862
  0
LINE
  5
254
100
AcDbEntity
  8
0
  6
CONTINUOUS
 62
          15
100
AcDbLine
 10
177.667999267578
 20
126.650207519531
 30
0.0
 11
176.714553833008
 21
127.603637695313
 31
0.0
  0
ELLIPSE
  5
255
100
AcDbEntity
  8
0
  6
CONTINUOUS
 62
          15
100
AcDbEllipse
 10
177.202972412109
 20
127.13264465332
 30
0.0
 11
-0.8458054131619205
 21
-0.0264423747198357
 31
0.0
210
0.0
220
0.0
230
1.0
 40
0.692971420477
 41
0.0
 42
6.2831853071795862
  0
LINE
  5
256
100
AcDbEntity
  8
0
  6
CONTINUOUS
 62
          15
100
AcDbLine
 10
180.363998413086
 20
126.650207519531
 30
0.0
 11
179.410552978516
 21
127.603637695313
 31
0.0
  0
ELLIPSE
  5
257
100
AcDbEntity
  8
0
  6
CONTINUOUS
 62
          15
100
AcDbEllipse
 10
179.898971557617
 20
127.13264465332
 30
0.0
 11
-0.8458054131619205
 21
-0.0264423747198357
 31
0.0
210
0.0
220
0.0
230
1.0
 40
0.692971420477
 41
0.0
 42
6.2831853071795862
  0
LINE
  5
258
100
AcDbEntity
  8
0
  6
CONTINUOUS
 62
          15
100
AcDbLine
 10
183.220245361328
 20
126.636535644531
 30
0.0
 11
182.266799926758
 21
127.589965820313
 31
0.0
  0
ELLIPSE
  5
259
100
AcDbEntity
  8
0
  6
CONTINUOUS
 62
          15
100
AcDbEllipse
 10
182.755218505859
 20
127.11897277832
 30
0.0
 11
-0.8458054131619205
 21
-0.0264423747198357
 31
0.0
210
0.0
220
0.0
230
1.0
 40
0.692971420477
 41
0.0
 42
6.2831853071795862
  0
LINE
  5
25A
100
AcDbEntity
  8
0
  6
CONTINUOUS
 62
          15
100
AcDbLine
 10
186.106246948242
 20
126.636535644531
 30
0.0
 11
185.152816772461
 21
127.589965820313
 31
0.0
  0
ELLIPSE
  5
25B
100
AcDbEntity
  8
0
  6
CONTINUOUS
 62
          15
100
AcDbEllipse
 10
185.641235351563
 20
127.11897277832
 30
0.0
 11
-0.8458054131619205
 21
-0.0264423747198357
 31
0.0
210
0.0
220
0.0
230
1.0
 40
0.692971420477
 41
0.0
 42
6.2831853071795862
  0
LINE
  5
25C
100
AcDbEntity
  8
0
  6
CONTINUOUS
 62
          15
100
AcDbLine
 10
188.671600341797
 20
126.636535644531
 30
0.0
 11
187.718170166016
 21
127.589965820313
 31
0.0
  0
ELLIPSE
  5
25D
100
AcDbEntity
  8
0
  6
CONTINUOUS
 62
          15
100
AcDbEllipse
 10
188.206588745117
 20
127.11897277832
 30
0.0
 11
-0.8458054131619205
 21
-0.0264423747198357
 31
0.0
210
0.0
220
0.0
230
1.0
 40
0.692971420477
 41
0.0
 42
6.2831853071795862
  0
LINE
  5
25E
100
AcDbEntity
  8
0
  6
CONTINUOUS
 62
          15
100
AcDbLine
 10
191.191131591797
 20
126.636535644531
 30
0.0
 11
190.237701416016
 21
127.589965820313
 31
0.0
  0
ELLIPSE
  5
25F
100
AcDbEntity
  8
0
  6
CONTINUOUS
 62
          15
100
AcDbEllipse
 10
190.726104736328
 20
127.11897277832
 30
0.0
 11
-0.8458054131619205
 21
-0.0264423747198357
 31
0.0
210
0.0
220
0.0
230
1.0
 40
0.692971420477
 41
0.0
 42
6.2831853071795862
  0
LINE
  5
260
100
AcDbEntity
  8
0
  6
CONTINUOUS
 62
          15
100
AcDbLine
 10
194.122955322266
 20
126.636535644531
 30
0.0
 11
193.169525146484
 21
127.589965820313
 31
0.0
  0
ELLIPSE
  5
261
100
AcDbEntity
  8
0
  6
CONTINUOUS
 62
          15
100
AcDbEllipse
 10
193.657943725586
 20
127.11897277832
 30
0.0
 11
-0.8458054131619205
 21
-0.0264423747198357
 31
0.0
210
0.0
220
0.0
230
1.0
 40
0.692971420477
 41
0.0
 42
6.2831853071795862
  0
LINE
  5
262
100
AcDbEntity
  8
0
  6
CONTINUOUS
 62
          15
100
AcDbLine
 10
196.779922485352
 20
126.636535644531
 30
0.0
 11
195.82649230957
 21
127.589965820313
 31
0.0
  0
ELLIPSE
  5
263
100
AcDbEntity
  8
0
  6
CONTINUOUS
 62
          15
100
AcDbEllipse
 10
196.314895629883
 20
127.11897277832
 30
0.0
 11
-0.8458054131619205
 21
-0.0264423747198357
 31
0.0
210
0.0
220
0.0
230
1.0
 40
0.692971420477
 41
0.0
 42
6.2831853071795862
  0
LINE
  5
264
100
AcDbEntity
  8
0
  6
CONTINUOUS
 62
          15
100
AcDbLine
 10
204.416580200195
 20
132.890625
 30
0.0
 11
203.463134765625
 21
133.844055175781
 31
0.0
  0
ELLIPSE
  5
265
100
AcDbEntity
  8
0
  6
CONTINUOUS
 62
          15
100
AcDbEllipse
 10
203.951553344727
 20
133.373062133789
 30
0.0
 11
-0.8458054131619205
 21
-0.0264423747198357
 31
0.0
210
0.0
220
0.0
230
1.0
 40
0.692971420477
 41
0.0
 42
6.2831853071795862
  0
LINE
  5
266
100
AcDbEntity
  8
0
  6
CONTINUOUS
 62
          15
100
AcDbLine
 10
207.218307495117
 20
132.890625
 30
0.0
 11
206.264877319336
 21
133.844055175781
 31
0.0
  0
ELLIPSE
  5
267
100
AcDbEntity
  8
0
  6
CONTINUOUS
 62
          15
100
AcDbEllipse
 10
206.753280639648
 20
133.373062133789
 30
0.0
 11
-0.8458054131619205
 21
-0.0264423747198357
 31
0.0
210
0.0
220
0.0
230
1.0
 40
0.692971420477
 41
0.0
 42
6.2831853071795862
  0
LINE
  5
268
100
AcDbEntity
  8
0
  6
CONTINUOUS
 62
          15
100
AcDbLine
 10
210.020034790039
 20
132.890625
 30
0.0
 11
209.066604614258
 21
133.844055175781
 31
0.0
  0
ELLIPSE
  5
269
100
AcDbEntity
  8
0
  6
CONTINUOUS
 62
          15
100
AcDbEllipse
 10
209.555023193359
 20
133.373062133789
 30
0.0
 11
-0.8458054131619205
 21
-0.0264423747198357
 31
0.0
210
0.0
220
0.0
230
1.0
 40
0.692971420477
 41
0.0
 42
6.2831853071795862
  0
LINE
  5
26A
100
AcDbEntity
  8
0
  6
CONTINUOUS
 62
          15
100
AcDbLine
 10
202.310073852539
 20
131.516372680664
 30
0.0
 11
210.69206237793
 21
131.516372680664
 31
0.0
  0
LINE
  5
26B
100
AcDbEntity
  8
0
  6
CONTINUOUS
 62
          15
100
AcDbLine
 10
192.921676635742
 20
124.278907775879
 30
0.0
 11
194.401840209961
 21
124.278907775879
 31
0.0
  0
LINE
  5
26C
100
AcDbEntity
  8
0
  6
CONTINUOUS
 62
          15
100
AcDbLine
 10
194.401840209961
 20
124.278907775879
 30
0.0
 11
194.401840209961
 21
122.163513183594
 31
0.0
  0
LINE
  5
26D
100
AcDbEntity
  8
0
  6
CONTINUOUS
 62
          15
100
AcDbLine
 10
194.401840209961
 20
122.163513183594
 30
0.0
 11
192.921676635742
 21
122.163513183594
 31
0.0
  0
LINE
  5
26E
100
AcDbEntity
  8
0
  6
CONTINUOUS
 62
          15
100
AcDbLine
 10
192.921676635742
 20
122.163513183594
 30
0.0
 11
192.921676635742
 21
124.278907775879
 31
0.0
  0
LINE
  5
26F
100
AcDbEntity
  8
0
  6
CONTINUOUS
 62
          15
100
AcDbLine
 10
192.921676635742
 20
122.851013183594
 30
0.0
 11
194.401840209961
 21
122.851013183594
 31
0.0
  0
LINE
  5
270
100
AcDbEntity
  8
0
  6
CONTINUOUS
 62
          15
100
AcDbLine
 10
189.973083496094
 20
124.278907775879
 30
0.0
 11
191.453247070313
 21
124.278907775879
 31
0.0
  0
LINE
  5
271
100
AcDbEntity
  8
0
  6
CONTINUOUS
 62
          15
100
AcDbLine
 10
191.453247070313
 20
124.278907775879
 30
0.0
 11
191.453247070313
 21
122.163513183594
 31
0.0
  0
LINE
  5
272
100
AcDbEntity
  8
0
  6
CONTINUOUS
 62
          15
100
AcDbLine
 10
191.453247070313
 20
122.163513183594
 30
0.0
 11
189.973083496094
 21
122.163513183594
 31
0.0
  0
LINE
  5
273
100
AcDbEntity
  8
0
  6
CONTINUOUS
 62
          15
100
AcDbLine
 10
189.973083496094
 20
122.163513183594
 30
0.0
 11
189.973083496094
 21
124.278907775879
 31
0.0
  0
LINE
  5
274
100
AcDbEntity
  8
0
  6
CONTINUOUS
 62
          15
100
AcDbLine
 10
189.973083496094
 20
122.851013183594
 30
0.0
 11
191.453247070313
 21
122.851013183594
 31
0.0
  0
LINE
  5
275
100
AcDbEntity
  8
0
  6
CONTINUOUS
 62
          15
100
AcDbLine
 10
195.613876342773
 20
124.278907775879
 30
0.0
 11
197.094024658203
 21
124.278907775879
 31
0.0
  0
LINE
  5
276
100
AcDbEntity
  8
0
  6
CONTINUOUS
 62
          15
100
AcDbLine
 10
197.094024658203
 20
124.278907775879
 30
0.0
 11
197.094024658203
 21
122.163513183594
 31
0.0
  0
LINE
  5
277
100
AcDbEntity
  8
0
  6
CONTINUOUS
 62
          15
100
AcDbLine
 10
197.094024658203
 20
122.163513183594
 30
0.0
 11
195.613876342773
 21
122.163513183594
 31
0.0
  0
LINE
  5
278
100
AcDbEntity
  8
0
  6
CONTINUOUS
 62
          15
100
AcDbLine
 10
195.613876342773
 20
122.163513183594
 30
0.0
 11
195.613876342773
 21
124.278907775879
 31
0.0
  0
LINE
  5
279
100
AcDbEntity
  8
0
  6
CONTINUOUS
 62
          15
100
AcDbLine
 10
195.613876342773
 20
122.851013183594
 30
0.0
 11
197.094024658203
 21
122.851013183594
 31
0.0
  0
LINE
  5
27A
100
AcDbEntity
  8
0
  6
CONTINUOUS
 62
          15
100
AcDbLine
 10
184.973297119141
 20
124.278129577637
 30
0.0
 11
186.453460693359
 21
124.278129577637
 31
0.0
  0
LINE
  5
27B
100
AcDbEntity
  8
0
  6
CONTINUOUS
 62
          15
100
AcDbLine
 10
186.453460693359
 20
124.278129577637
 30
0.0
 11
186.453460693359
 21
122.162727355957
 31
0.0
  0
LINE
  5
27C
100
AcDbEntity
  8
0
  6
CONTINUOUS
 62
          15
100
AcDbLine
 10
186.453460693359
 20
122.162727355957
 30
0.0
 11
184.973297119141
 21
122.162727355957
 31
0.0
  0
LINE
  5
27D
100
AcDbEntity
  8
0
  6
CONTINUOUS
 62
          15
100
AcDbLine
 10
184.973297119141
 20
122.162727355957
 30
0.0
 11
184.973297119141
 21
124.278129577637
 31
0.0
  0
LINE
  5
27E
100
AcDbEntity
  8
0
  6
CONTINUOUS
 62
          15
100
AcDbLine
 10
184.973297119141
 20
122.850227355957
 30
0.0
 11
186.453460693359
 21
122.850227355957
 31
0.0
  0
LINE
  5
27F
100
AcDbEntity
  8
0
  6
CONTINUOUS
 62
          15
100
AcDbLine
 10
182.024703979492
 20
124.278129577637
 30
0.0
 11
183.504867553711
 21
124.278129577637
 31
0.0
  0
LINE
  5
280
100
AcDbEntity
  8
0
  6
CONTINUOUS
 62
          15
100
AcDbLine
 10
183.504867553711
 20
124.278129577637
 30
0.0
 11
183.504867553711
 21
122.162727355957
 31
0.0
  0
LINE
  5
281
100
AcDbEntity
  8
0
  6
CONTINUOUS
 62
          15
100
AcDbLine
 10
183.504867553711
 20
122.162727355957
 30
0.0
 11
182.024703979492
 21
122.162727355957
 31
0.0
  0
LINE
  5
282
100
AcDbEntity
  8
0
  6
CONTINUOUS
 62
          15
100
AcDbLine
 10
182.024703979492
 20
122.162727355957
 30
0.0
 11
182.024703979492
 21
124.278129577637
 31
0.0
  0
LINE
  5
283
100
AcDbEntity
  8
0
  6
CONTINUOUS
 62
          15
100
AcDbLine
 10
182.024703979492
 20
122.850227355957
 30
0.0
 11
183.504867553711
 21
122.850227355957
 31
0.0
  0
LINE
  5
284
100
AcDbEntity
  8
0
  6
CONTINUOUS
 62
          15
100
AcDbLine
 10
187.473190307617
 20
124.278129577637
 30
0.0
 11
188.953353881836
 21
124.278129577637
 31
0.0
  0
LINE
  5
285
100
AcDbEntity
  8
0
  6
CONTINUOUS
 62
          15
100
AcDbLine
 10
188.953353881836
 20
124.278129577637
 30
0.0
 11
188.953353881836
 21
122.162727355957
 31
0.0
  0
LINE
  5
286
100
AcDbEntity
  8
0
  6
CONTINUOUS
 62
          15
100
AcDbLine
 10
188.953353881836
 20
122.162727355957
 30
0.0
 11
187.473190307617
 21
122.162727355957
 31
0.0
  0
LINE
  5
287
100
AcDbEntity
  8
0
  6
CONTINUOUS
 62
          15
100
AcDbLine
 10
187.473190307617
 20
122.162727355957
 30
0.0
 11
187.473190307617
 21
124.278129577637
 31
0.0
  0
LINE
  5
288
100
AcDbEntity
  8
0
  6
CONTINUOUS
 62
          15
100
AcDbLine
 10
187.473190307617
 20
122.850227355957
 30
0.0
 11
188.953353881836
 21
122.850227355957
 31
0.0
  0
LINE
  5
289
100
AcDbEntity
  8
0
  6
CONTINUOUS
 62
          15
100
AcDbLine
 10
176.576217651367
 20
124.278129577637
 30
0.0
 11
178.056365966797
 21
124.278129577637
 31
0.0
  0
LINE
  5
28A
100
AcDbEntity
  8
0
  6
CONTINUOUS
 62
          15
100
AcDbLine
 10
178.056365966797
 20
124.278129577637
 30
0.0
 11
178.056365966797
 21
122.162727355957
 31
0.0
  0
LINE
  5
28B
100
AcDbEntity
  8
0
  6
CONTINUOUS
 62
          15
100
AcDbLine
 10
178.056365966797
 20
122.162727355957
 30
0.0
 11
176.576217651367
 21
122.162727355957
 31
0.0
  0
LINE
  5
28C
100
AcDbEntity
  8
0
  6
CONTINUOUS
 62
          15
100
AcDbLine
 10
176.576217651367
 20
122.162727355957
 30
0.0
 11
176.576217651367
 21
124.278129577637
 31
0.0
  0
LINE
  5
28D
100
AcDbEntity
  8
0
  6
CONTINUOUS
 62
          15
100
AcDbLine
 10
176.576217651367
 20
122.850227355957
 30
0.0
 11
178.056365966797
 21
122.850227355957
 31
0.0
  0
LINE
  5
28E
100
AcDbEntity
  8
0
  6
CONTINUOUS
 62
          15
100
AcDbLine
 10
173.627624511719
 20
124.278129577637
 30
0.0
 11
175.107772827148
 21
124.278129577637
 31
0.0
  0
LINE
  5
28F
100
AcDbEntity
  8
0
  6
CONTINUOUS
 62
          15
100
AcDbLine
 10
175.107772827148
 20
124.278129577637
 30
0.0
 11
175.107772827148
 21
122.162727355957
 31
0.0
  0
LINE
  5
290
100
AcDbEntity
  8
0
  6
CONTINUOUS
 62
          15
100
AcDbLine
 10
175.107772827148
 20
122.162727355957
 30
0.0
 11
173.627624511719
 21
122.162727355957
 31
0.0
  0
LINE
  5
291
100
AcDbEntity
  8
0
  6
CONTINUOUS
 62
          15
100
AcDbLine
 10
173.627624511719
 20
122.162727355957
 30
0.0
 11
173.627624511719
 21
124.278129577637
 31
0.0
  0
LINE
  5
292
100
AcDbEntity
  8
0
  6
CONTINUOUS
 62
          15
100
AcDbLine
 10
173.627624511719
 20
122.850227355957
 30
0.0
 11
175.107772827148
 21
122.850227355957
 31
0.0
  0
LINE
  5
293
100
AcDbEntity
  8
0
  6
CONTINUOUS
 62
          15
100
AcDbLine
 10
179.076110839844
 20
124.278129577637
 30
0.0
 11
180.556259155273
 21
124.278129577637
 31
0.0
  0
LINE
  5
294
100
AcDbEntity
  8
0
  6
CONTINUOUS
 62
          15
100
AcDbLine
 10
180.556259155273
 20
124.278129577637
 30
0.0
 11
180.556259155273
 21
122.162727355957
 31
0.0
  0
LINE
  5
295
100
AcDbEntity
  8
0
  6
CONTINUOUS
 62
          15
100
AcDbLine
 10
180.556259155273
 20
122.162727355957
 30
0.0
 11
179.076110839844
 21
122.162727355957
 31
0.0
  0
LINE
  5
296
100
AcDbEntity
  8
0
  6
CONTINUOUS
 62
          15
100
AcDbLine
 10
179.076110839844
 20
122.162727355957
 30
0.0
 11
179.076110839844
 21
124.278129577637
 31
0.0
  0
LINE
  5
297
100
AcDbEntity
  8
0
  6
CONTINUOUS
 62
          15
100
AcDbLine
 10
179.076110839844
 20
122.850227355957
 30
0.0
 11
180.556259155273
 21
122.850227355957
 31
0.0
  0
LINE
  5
298
100
AcDbEntity
  8
0
  6
CONTINUOUS
 62
          15
100
AcDbLine
 10
168.40348815918
 20
124.278129577637
 30
0.0
 11
169.883651733398
 21
124.278129577637
 31
0.0
  0
LINE
  5
299
100
AcDbEntity
  8
0
  6
CONTINUOUS
 62
          15
100
AcDbLine
 10
169.883651733398
 20
124.278129577637
 30
0.0
 11
169.883651733398
 21
122.162727355957
 31
0.0
  0
LINE
  5
29A
100
AcDbEntity
  8
0
  6
CONTINUOUS
 62
          15
100
AcDbLine
 10
169.883651733398
 20
122.162727355957
 30
0.0
 11
168.40348815918
 21
122.162727355957
 31
0.0
  0
LINE
  5
29B
100
AcDbEntity
  8
0
  6
CONTINUOUS
 62
          15
100
AcDbLine
 10
168.40348815918
 20
122.162727355957
 30
0.0
 11
168.40348815918
 21
124.278129577637
 31
0.0
  0
LINE
  5
29C
100
AcDbEntity
  8
0
  6
CONTINUOUS
 62
          15
100
AcDbLine
 10
168.40348815918
 20
122.850227355957
 30
0.0
 11
169.883651733398
 21
122.850227355957
 31
0.0
  0
LINE
  5
29D
100
AcDbEntity
  8
0
  6
CONTINUOUS
 62
          15
100
AcDbLine
 10
165.454895019531
 20
124.278129577637
 30
0.0
 11
166.93505859375
 21
124.278129577637
 31
0.0
  0
LINE
  5
29E
100
AcDbEntity
  8
0
  6
CONTINUOUS
 62
          15
100
AcDbLine
 10
166.93505859375
 20
124.278129577637
 30
0.0
 11
166.93505859375
 21
122.162727355957
 31
0.0
  0
LINE
  5
29F
100
AcDbEntity
  8
0
  6
CONTINUOUS
 62
          15
100
AcDbLine
 10
166.93505859375
 20
122.162727355957
 30
0.0
 11
165.454895019531
 21
122.162727355957
 31
0.0
  0
LINE
  5
2A0
100
AcDbEntity
  8
0
  6
CONTINUOUS
 62
          15
100
AcDbLine
 10
165.454895019531
 20
122.162727355957
 30
0.0
 11
165.454895019531
 21
124.278129577637
 31
0.0
  0
LINE
  5
2A1
100
AcDbEntity
  8
0
  6
CONTINUOUS
 62
          15
100
AcDbLine
 10
165.454895019531
 20
122.850227355957
 30
0.0
 11
166.93505859375
 21
122.850227355957
 31
0.0
  0
LINE
  5
2A2
100
AcDbEntity
  8
0
  6
CONTINUOUS
 62
          15
100
AcDbLine
 10
170.903381347656
 20
124.278129577637
 30
0.0
 11
172.383544921875
 21
124.278129577637
 31
0.0
  0
LINE
  5
2A3
100
AcDbEntity
  8
0
  6
CONTINUOUS
 62
          15
100
AcDbLine
 10
172.383544921875
 20
124.278129577637
 30
0.0
 11
172.383544921875
 21
122.162727355957
 31
0.0
  0
LINE
  5
2A4
100
AcDbEntity
  8
0
  6
CONTINUOUS
 62
          15
100
AcDbLine
 10
172.383544921875
 20
122.162727355957
 30
0.0
 11
170.903381347656
 21
122.162727355957
 31
0.0
  0
LINE
  5
2A5
100
AcDbEntity
  8
0
  6
CONTINUOUS
 62
          15
100
AcDbLine
 10
170.903381347656
 20
122.162727355957
 30
0.0
 11
170.903381347656
 21
124.278129577637
 31
0.0
  0
LINE
  5
2A6
100
AcDbEntity
  8
0
  6
CONTINUOUS
 62
          15
100
AcDbLine
 10
170.903381347656
 20
122.850227355957
 30
0.0
 11
172.383544921875
 21
122.850227355957
 31
0.0
  0
LINE
  5
2A7
100
AcDbEntity
  8
0
  6
CONTINUOUS
 62
          15
100
AcDbLine
 10
206.023513793945
 20
130.916976928711
 30
0.0
 11
207.503662109375
 21
130.916976928711
 31
0.0
  0
LINE
  5
2A8
100
AcDbEntity
  8
0
  6
CONTINUOUS
 62
          15
100
AcDbLine
 10
207.503662109375
 20
130.916976928711
 30
0.0
 11
207.503662109375
 21
128.801574707031
 31
0.0
  0
LINE
  5
2A9
100
AcDbEntity
  8
0
  6
CONTINUOUS
 62
          15
100
AcDbLine
 10
207.503662109375
 20
128.801574707031
 30
0.0
 11
206.023513793945
 21
128.801574707031
 31
0.0
  0
LINE
  5
2AA
100
AcDbEntity
  8
0
  6
CONTINUOUS
 62
          15
100
AcDbLine
 10
206.023513793945
 20
128.801574707031
 30
0.0
 11
206.023513793945
 21
130.916976928711
 31
0.0
  0
LINE
  5
2AB
100
AcDbEntity
  8
0
  6
CONTINUOUS
 62
          15
100
AcDbLine
 10
206.023513793945
 20
129.489074707031
 30
0.0
 11
207.503662109375
 21
129.489074707031
 31
0.0
  0
LINE
  5
2AC
100
AcDbEntity
  8
0
  6
CONTINUOUS
 62
          15
100
AcDbLine
 10
203.074905395508
 20
130.916976928711
 30
0.0
 11
204.555068969727
 21
130.916976928711
 31
0.0
  0
LINE
  5
2AD
100
AcDbEntity
  8
0
  6
CONTINUOUS
 62
          15
100
AcDbLine
 10
204.555068969727
 20
130.916976928711
 30
0.0
 11
204.555068969727
 21
128.801574707031
 31
0.0
  0
LINE
  5
2AE
100
AcDbEntity
  8
0
  6
CONTINUOUS
 62
          15
100
AcDbLine
 10
204.555068969727
 20
128.801574707031
 30
0.0
 11
203.074905395508
 21
128.801574707031
 31
0.0
  0
LINE
  5
2AF
100
AcDbEntity
  8
0
  6
CONTINUOUS
 62
          15
100
AcDbLine
 10
203.074905395508
 20
128.801574707031
 30
0.0
 11
203.074905395508
 21
130.916976928711
 31
0.0
  0
LINE
  5
2B0
100
AcDbEntity
  8
0
  6
CONTINUOUS
 62
          15
100
AcDbLine
 10
203.074905395508
 20
129.489074707031
 30
0.0
 11
204.555068969727
 21
129.489074707031
 31
0.0
  0
LINE
  5
2B1
100
AcDbEntity
  8
0
  6
CONTINUOUS
 62
          15
100
AcDbLine
 10
208.715698242188
 20
130.916976928711
 30
0.0
 11
210.195861816406
 21
130.916976928711
 31
0.0
  0
LINE
  5
2B2
100
AcDbEntity
  8
0
  6
CONTINUOUS
 62
          15
100
AcDbLine
 10
210.195861816406
 20
130.916976928711
 30
0.0
 11
210.195861816406
 21
128.801574707031
 31
0.0
  0
LINE
  5
2B3
100
AcDbEntity
  8
0
  6
CONTINUOUS
 62
          15
100
AcDbLine
 10
210.195861816406
 20
128.801574707031
 30
0.0
 11
208.715698242188
 21
128.801574707031
 31
0.0
  0
LINE
  5
2B4
100
AcDbEntity
  8
0
  6
CONTINUOUS
 62
          15
100
AcDbLine
 10
208.715698242188
 20
128.801574707031
 30
0.0
 11
208.715698242188
 21
130.916976928711
 31
0.0
  0
LINE
  5
2B5
100
AcDbEntity
  8
0
  6
CONTINUOUS
 62
          15
100
AcDbLine
 10
208.715698242188
 20
129.489074707031
 30
0.0
 11
210.195861816406
 21
129.489074707031
 31
0.0
  0
LINE
  5
2B6
100
AcDbEntity
  8
0
  6
CONTINUOUS
 62
          15
100
AcDbLine
 10
188.213256835938
 20
113.643699645996
 30
0.0
 11
188.213256835938
 21
122.850227355957
 31
0.0
  0
LINE
  5
2B7
100
AcDbEntity
  8
0
  6
CONTINUOUS
 62
          15
100
AcDbLine
 10
188.213256835938
 20
109.856315612793
 30
0.0
 11
188.213256835938
 21
113.643699645996
 31
0.0
  0
LINE
  5
2B8
100
AcDbEntity
  8
0
  6
CONTINUOUS
 62
          15
100
AcDbLine
 10
193.661773681641
 20
113.643699645996
 30
0.0
 11
193.661773681641
 21
122.851013183594
 31
0.0
  0
LINE
  5
2B9
100
AcDbEntity
  8
0
  6
CONTINUOUS
 62
          15
100
AcDbLine
 10
193.661773681641
 20
108.474716186523
 30
0.0
 11
193.661773681641
 21
113.643699645996
 31
0.0
  0
LINE
  5
2BA
100
AcDbEntity
  8
0
  6
CONTINUOUS
 62
          15
100
AcDbLine
 10
190.713165283203
 20
113.644477844238
 30
0.0
 11
190.713165283203
 21
122.851013183594
 31
0.0
  0
LINE
  5
2BB
100
AcDbEntity
  8
0
  6
CONTINUOUS
 62
          15
100
AcDbLine
 10
196.161682128906
 20
113.644477844238
 30
0.0
 11
196.161682128906
 21
122.851791381836
 31
0.0
  0
LINE
  5
2BC
100
AcDbEntity
  8
0
  6
CONTINUOUS
 62
          15
100
AcDbLine
 10
210.546447753906
 20
114.889991760254
 30
0.0
 11
223.115875244141
 21
114.889991760254
 31
0.0
  0
LINE
  5
2BD
100
AcDbEntity
  8
0
  6
CONTINUOUS
 62
          15
100
AcDbLine
 10
208.01203918457
 20
112.316703796387
 30
0.0
 11
223.115875244141
 21
112.316703796387
 31
0.0
  0
LINE
  5
2BE
100
AcDbEntity
  8
0
  6
CONTINUOUS
 62
          15
100
AcDbLine
 10
205.477691650391
 20
109.743408203125
 30
0.0
 11
223.115875244141
 21
109.743408203125
 31
0.0
  0
LINE
  5
2BF
100
AcDbEntity
  8
0
  6
CONTINUOUS
 62
          15
100
AcDbLine
 10
210.546447753906
 20
114.889991760254
 30
0.0
 11
210.546447753906
 21
122.807800292969
 31
0.0
  0
LINE
  5
2C0
100
AcDbEntity
  8
0
  6
CONTINUOUS
 62
          15
100
AcDbLine
 10
208.01203918457
 20
112.316703796387
 30
0.0
 11
208.01203918457
 21
122.807800292969
 31
0.0
  0
LINE
  5
2C1
100
AcDbEntity
  8
0
  6
CONTINUOUS
 62
          15
100
AcDbLine
 10
205.477691650391
 20
109.743408203125
 30
0.0
 11
205.477691650391
 21
122.807800292969
 31
0.0
  0
LINE
  5
2C2
100
AcDbEntity
  8
0
  6
CONTINUOUS
 62
          15
100
AcDbLine
 10
190.713165283203
 20
99.426879882813
 30
0.0
 11
190.713165283203
 21
113.644477844238
 31
0.0
  0
LINE
  5
2C3
100
AcDbEntity
  8
0
  6
CONTINUOUS
 62
          15
100
AcDbLine
 10
196.161682128906
 20
99.426879882813
 30
0.0
 11
196.161682128906
 21
113.644477844238
 31
0.0
  0
LINE
  5
2C4
100
AcDbEntity
  8
0
  6
CONTINUOUS
 62
          15
100
AcDbLine
 10
199.208938598633
 20
99.41854095459
 30
0.0
 11
199.208938598633
 21
106.947998046875
 31
0.0
  0
TEXT
  5
2C5
100
AcDbEntity
  8
0
  6
CONTINUOUS
 62
          15
100
AcDbText
 10
224.047454833984
 20
111.999089054763
 30
0.0
 40
1.0
  1
EARTH
 41
1.000000014901
  7
GOTHICG
100
AcDbText
  0
LINE
  5
2C6
100
AcDbEntity
  8
0
  6
CONTINUOUS
 62
          15
100
AcDbLine
 10
55.544410705566
 20
120.480834960938
 30
0.0
 11
70.442390441895
 21
120.480834960938
 31
0.0
  0
LINE
  5
2C7
100
AcDbEntity
  8
0
  6
CONTINUOUS
 62
          15
100
AcDbLine
 10
70.442390441895
 20
120.470321655273
 30
0.0
 11
70.442390441895
 21
128.712600708008
 31
0.0
  0
LINE
  5
2C8
100
AcDbEntity
  8
0
  6
CONTINUOUS
 62
          15
100
AcDbLine
 10
59.696388244629
 20
123.803100585938
 30
0.0
 11
60.867813110352
 21
123.803100585938
 31
0.0
  0
LINE
  5
2C9
100
AcDbEntity
  8
0
  6
CONTINUOUS
 62
          15
100
AcDbLine
 10
60.867813110352
 20
123.803100585938
 30
0.0
 11
60.867813110352
 21
121.7255859375
 31
0.0
  0
LINE
  5
2CA
100
AcDbEntity
  8
0
  6
CONTINUOUS
 62
          15
100
AcDbLine
 10
60.867813110352
 20
121.7255859375
 30
0.0
 11
59.696388244629
 21
121.7255859375
 31
0.0
  0
LINE
  5
2CB
100
AcDbEntity
  8
0
  6
CONTINUOUS
 62
          15
100
AcDbLine
 10
59.696388244629
 20
121.7255859375
 30
0.0
 11
59.696388244629
 21
123.803100585938
 31
0.0
  0
LINE
  5
2CC
100
AcDbEntity
  8
0
  6
CONTINUOUS
 62
          15
100
AcDbLine
 10
59.696388244629
 20
122.422828674316
 30
0.0
 11
60.867813110352
 21
122.422828674316
 31
0.0
  0
ELLIPSE
  5
2CD
100
AcDbEntity
  8
0
  6
CONTINUOUS
 62
          15
100
AcDbEllipse
 10
60.273559570313
 20
126.598709106445
 30
0.0
 11
-0.8523110151290796
 21
0.0000001286953828
 31
0.0
210
0.0
220
0.0
230
1.0
 40
0.624739307353
 41
0.0
 42
6.2831853071795862
  0
LINE
  5
2CE
100
AcDbEntity
  8
0
  6
CONTINUOUS
 62
          15
100
AcDbLine
 10
60.699089050293
 20
126.173179626465
 30
0.0
 11
59.848037719727
 21
127.02424621582
 31
0.0
  0
LINE
  5
2CF
100
AcDbEntity
  8
0
  6
CONTINUOUS
 62
          15
100
AcDbLine
 10
62.539245605469
 20
123.803100585938
 30
0.0
 11
63.710678100586
 21
123.803100585938
 31
0.0
  0
LINE
  5
2D0
100
AcDbEntity
  8
0
  6
CONTINUOUS
 62
          15
100
AcDbLine
 10
63.710678100586
 20
123.803100585938
 30
0.0
 11
63.710678100586
 21
121.7255859375
 31
0.0
  0
LINE
  5
2D1
100
AcDbEntity
  8
0
  6
CONTINUOUS
 62
          15
100
AcDbLine
 10
63.710678100586
 20
121.7255859375
 30
0.0
 11
62.539245605469
 21
121.7255859375
 31
0.0
  0
LINE
  5
2D2
100
AcDbEntity
  8
0
  6
CONTINUOUS
 62
          15
100
AcDbLine
 10
62.539245605469
 20
121.7255859375
 30
0.0
 11
62.539245605469
 21
123.803100585938
 31
0.0
  0
LINE
  5
2D3
100
AcDbEntity
  8
0
  6
CONTINUOUS
 62
          15
100
AcDbLine
 10
62.539245605469
 20
122.422828674316
 30
0.0
 11
63.710678100586
 21
122.422828674316
 31
0.0
  0
ELLIPSE
  5
2D4
100
AcDbEntity
  8
0
  6
CONTINUOUS
 62
          15
100
AcDbEllipse
 10
63.116416931152
 20
126.598709106445
 30
0.0
 11
-0.8523110151290796
 21
0.0000001286953828
 31
0.0
210
0.0
220
0.0
230
1.0
 40
0.624739307353
 41
0.0
 42
6.2831853071795862
  0
LINE
  5
2D5
100
AcDbEntity
  8
0
  6
CONTINUOUS
 62
          15
100
AcDbLine
 10
63.541946411133
 20
126.173179626465
 30
0.0
 11
62.690895080566
 21
127.02424621582
 31
0.0
  0
LINE
  5
2D6
100
AcDbEntity
  8
0
  6
CONTINUOUS
 62
          15
100
AcDbLine
 10
65.504379272461
 20
123.803100585938
 30
0.0
 11
66.675811767578
 21
123.803100585938
 31
0.0
  0
LINE
  5
2D7
100
AcDbEntity
  8
0
  6
CONTINUOUS
 62
          15
100
AcDbLine
 10
66.675811767578
 20
123.803100585938
 30
0.0
 11
66.675811767578
 21
121.7255859375
 31
0.0
  0
LINE
  5
2D8
100
AcDbEntity
  8
0
  6
CONTINUOUS
 62
          15
100
AcDbLine
 10
66.675811767578
 20
121.7255859375
 30
0.0
 11
65.504379272461
 21
121.7255859375
 31
0.0
  0
LINE
  5
2D9
100
AcDbEntity
  8
0
  6
CONTINUOUS
 62
          15
100
AcDbLine
 10
65.504379272461
 20
121.7255859375
 30
0.0
 11
65.504379272461
 21
123.803100585938
 31
0.0
  0
LINE
  5
2DA
100
AcDbEntity
  8
0
  6
CONTINUOUS
 62
          15
100
AcDbLine
 10
65.504379272461
 20
122.422828674316
 30
0.0
 11
66.675811767578
 21
122.422828674316
 31
0.0
  0
ELLIPSE
  5
2DB
100
AcDbEntity
  8
0
  6
CONTINUOUS
 62
          15
100
AcDbEllipse
 10
66.081550598145
 20
126.598709106445
 30
0.0
 11
-0.8523110151290796
 21
0.0000001286953828
 31
0.0
210
0.0
220
0.0
230
1.0
 40
0.624739307353
 41
0.0
 42
6.2831853071795862
  0
LINE
  5
2DC
100
AcDbEntity
  8
0
  6
CONTINUOUS
 62
          15
100
AcDbLine
 10
66.507080078125
 20
126.173179626465
 30
0.0
 11
65.656028747559
 21
127.02424621582
 31
0.0
  0
LINE
  5
2DD
100
AcDbEntity
  8
0
  6
CONTINUOUS
 62
          15
100
AcDbLine
 10
68.561218261719
 20
123.803100585938
 30
0.0
 11
69.732650756836
 21
123.803100585938
 31
0.0
  0
LINE
  5
2DE
100
AcDbEntity
  8
0
  6
CONTINUOUS
 62
          15
100
AcDbLine
 10
69.732650756836
 20
123.803100585938
 30
0.0
 11
69.732650756836
 21
121.7255859375
 31
0.0
  0
LINE
  5
2DF
100
AcDbEntity
  8
0
  6
CONTINUOUS
 62
          15
100
AcDbLine
 10
69.732650756836
 20
121.7255859375
 30
0.0
 11
68.561218261719
 21
121.7255859375
 31
0.0
  0
LINE
  5
2E0
100
AcDbEntity
  8
0
  6
CONTINUOUS
 62
          15
100
AcDbLine
 10
68.561218261719
 20
121.7255859375
 30
0.0
 11
68.561218261719
 21
123.803100585938
 31
0.0
  0
LINE
  5
2E1
100
AcDbEntity
  8
0
  6
CONTINUOUS
 62
          15
100
AcDbLine
 10
68.561218261719
 20
122.422828674316
 30
0.0
 11
69.732650756836
 21
122.422828674316
 31
0.0
  0
ELLIPSE
  5
2E2
100
AcDbEntity
  8
0
  6
CONTINUOUS
 62
          15
100
AcDbEllipse
 10
69.138389587402
 20
126.598709106445
 30
0.0
 11
-0.8523110151290796
 21
0.0000001286953828
 31
0.0
210
0.0
220
0.0
230
1.0
 40
0.624739307353
 41
0.0
 42
6.2831853071795862
  0
LINE
  5
2E3
100
AcDbEntity
  8
0
  6
CONTINUOUS
 62
          15
100
AcDbLine
 10
69.563919067383
 20
126.173179626465
 30
0.0
 11
68.712867736816
 21
127.02424621582
 31
0.0
  0
LINE
  5
2E4
100
AcDbEntity
  8
0
  6
CONTINUOUS
 62
          15
100
AcDbLine
 10
56.425567626953
 20
123.803100585938
 30
0.0
 11
57.596996307373
 21
123.803100585938
 31
0.0
  0
LINE
  5
2E5
100
AcDbEntity
  8
0
  6
CONTINUOUS
 62
          15
100
AcDbLine
 10
57.596996307373
 20
123.803100585938
 30
0.0
 11
57.596996307373
 21
121.7255859375
 31
0.0
  0
LINE
  5
2E6
100
AcDbEntity
  8
0
  6
CONTINUOUS
 62
          15
100
AcDbLine
 10
57.596996307373
 20
121.7255859375
 30
0.0
 11
56.425567626953
 21
121.7255859375
 31
0.0
  0
LINE
  5
2E7
100
AcDbEntity
  8
0
  6
CONTINUOUS
 62
          15
100
AcDbLine
 10
56.425567626953
 20
121.7255859375
 30
0.0
 11
56.425567626953
 21
123.803100585938
 31
0.0
  0
LINE
  5
2E8
100
AcDbEntity
  8
0
  6
CONTINUOUS
 62
          15
100
AcDbLine
 10
56.425567626953
 20
122.422828674316
 30
0.0
 11
57.596996307373
 21
122.422828674316
 31
0.0
  0
ELLIPSE
  5
2E9
100
AcDbEntity
  8
0
  6
CONTINUOUS
 62
          15
100
AcDbEllipse
 10
57.002738952637
 20
126.598709106445
 30
0.0
 11
-0.8523110151290796
 21
0.0000001286953828
 31
0.0
210
0.0
220
0.0
230
1.0
 40
0.624739307353
 41
0.0
 42
6.2831853071795862
  0
LINE
  5
2EA
100
AcDbEntity
  8
0
  6
CONTINUOUS
 62
          15
100
AcDbLine
 10
57.428268432617
 20
126.173179626465
 30
0.0
 11
56.577217102051
 21
127.02424621582
 31
0.0
  0
LINE
  5
2EB
100
AcDbEntity
  8
0
  6
CONTINUOUS
 62
          15
100
AcDbLine
 10
58.608901977539
 20
120.480834960938
 30
0.0
 11
58.608901977539
 21
128.712600708008
 31
0.0
  0
LINE
  5
2EC
100
AcDbEntity
  8
0
  6
CONTINUOUS
 62
          15
100
AcDbLine
 10
61.696952819824
 20
120.480834960938
 30
0.0
 11
61.696952819824
 21
128.712600708008
 31
0.0
  0
LINE
  5
2ED
100
AcDbEntity
  8
0
  6
CONTINUOUS
 62
          15
100
AcDbLine
 10
64.593704223633
 20
120.480834960938
 30
0.0
 11
64.593704223633
 21
128.712600708008
 31
0.0
  0
LINE
  5
2EE
100
AcDbEntity
  8
0
  6
CONTINUOUS
 62
          15
100
AcDbLine
 10
67.599769592285
 20
120.480834960938
 30
0.0
 11
67.599769592285
 21
128.712600708008
 31
0.0
  0
LINE
  5
2EF
100
AcDbEntity
  8
0
  6
CONTINUOUS
 62
          15
100
AcDbLine
 10
70.442390441895
 20
120.480834960938
 30
0.0
 11
85.220573425293
 21
120.480834960938
 31
0.0
  0
LINE
  5
2F0
100
AcDbEntity
  8
0
  6
CONTINUOUS
 62
          15
100
AcDbLine
 10
70.442390441895
 20
120.474143981934
 30
0.0
 11
70.442390441895
 21
128.716430664063
 31
0.0
  0
LINE
  5
2F1
100
AcDbEntity
  8
0
  6
CONTINUOUS
 62
          15
100
AcDbLine
 10
55.544410705566
 20
120.480834960938
 30
0.0
 11
55.544410705566
 21
128.712600708008
 31
0.0
  0
LINE
  5
2F2
100
AcDbEntity
  8
0
  6
CONTINUOUS
 62
          15
100
AcDbLine
 10
85.220573425293
 20
120.480834960938
 30
0.0
 11
85.220573425293
 21
128.712600708008
 31
0.0
  0
TEXT
  5
2F3
100
AcDbEntity
  8
0
  6
CONTINUOUS
 62
          15
100
AcDbText
 10
85.535278320313
 20
103.31819459796
 30
0.0
 40
1.5
  1
56K OHM RESISTORS
 41
1.066666682561
  7
GOTHICI
100
AcDbText
  0
TEXT
  5
2F4
100
AcDbEntity
  8
0
  6
CONTINUOUS
 62
          15
100
AcDbText
 10
85.535278320313
 20
100.918194502592
 30
0.0
 40
1.5
  1
MUST BE FITTED TO
 41
1.066666682561
  7
GOTHICI
100
AcDbText
  0
TEXT
  5
2F5
100
AcDbEntity
  8
0
  6
CONTINUOUS
 62
          15
100
AcDbText
 10
85.535278320313
 20
98.518194407225
 30
0.0
 40
1.5
  1
ANY UNUSED INPUTS
 41
1.066666682561
  7
GOTHICI
100
AcDbText
  0
TEXT
  5
2F6
100
AcDbEntity
  8
0
  6
CONTINUOUS
 62
          15
100
AcDbText
 10
72.363723754883
 20
116.359693095088
 30
0.0
 40
1.078992009163
  1
SERVICE D
 41
1.027777737881
  7
TXT
100
AcDbText
  0
LINE
  5
2F7
100
AcDbEntity
  8
0
  6
CONTINUOUS
 62
          15
100
AcDbLine
 10
60.282104492188
 20
114.606986999512
 30
0.0
 11
60.282104492188
 21
122.422828674316
 31
0.0
  0
LINE
  5
2F8
100
AcDbEntity
  8
0
  6
CONTINUOUS
 62
          15
100
AcDbLine
 10
63.124961853027
 20
114.606986999512
 30
0.0
 11
63.124961853027
 21
122.422828674316
 31
0.0
  0
LINE
  5
2F9
100
AcDbEntity
  8
0
  6
CONTINUOUS
 62
          15
100
AcDbLine
 10
66.09009552002
 20
114.606986999512
 30
0.0
 11
66.09009552002
 21
122.422828674316
 31
0.0
  0
LINE
  5
2FA
100
AcDbEntity
  8
0
  6
CONTINUOUS
 62
          15
100
AcDbLine
 10
69.146934509277
 20
114.606986999512
 30
0.0
 11
69.146934509277
 21
122.422828674316
 31
0.0
  0
LINE
  5
2FB
100
AcDbEntity
  8
0
  6
CONTINUOUS
 62
          15
100
AcDbLine
 10
41.898704528809
 20
114.606986999512
 30
0.0
 11
41.898704528809
 21
122.422828674316
 31
0.0
  0
LINE
  5
2FC
100
AcDbEntity
  8
0
  6
CONTINUOUS
 62
          15
100
AcDbLine
 10
45.169521331787
 20
114.606986999512
 30
0.0
 11
45.169521331787
 21
122.422828674316
 31
0.0
  0
LINE
  5
2FD
100
AcDbEntity
  8
0
  6
CONTINUOUS
 62
          15
100
AcDbLine
 10
48.012382507324
 20
114.606986999512
 30
0.0
 11
48.012382507324
 21
122.422828674316
 31
0.0
  0
LINE
  5
2FE
100
AcDbEntity
  8
0
  6
CONTINUOUS
 62
          15
100
AcDbLine
 10
50.977516174316
 20
114.606986999512
 30
0.0
 11
50.977516174316
 21
122.422828674316
 31
0.0
  0
LINE
  5
2FF
100
AcDbEntity
  8
0
  6
CONTINUOUS
 62
          15
100
AcDbLine
 10
54.034355163574
 20
114.606986999512
 30
0.0
 11
54.034355163574
 21
122.422828674316
 31
0.0
  0
LINE
  5
300
100
AcDbEntity
  8
0
  6
CONTINUOUS
 62
          15
100
AcDbLine
 10
92.166870117188
 20
108.474716186523
 30
0.0
 11
193.661773681641
 21
108.474716186523
 31
0.0
  0
LINE
  5
301
100
AcDbEntity
  8
0
  6
CONTINUOUS
 62
          15
100
AcDbLine
 10
89.324005126953
 20
109.856315612793
 30
0.0
 11
188.213256835938
 21
109.856315612793
 31
0.0
  0
LINE
  5
302
100
AcDbEntity
  8
0
  6
CONTINUOUS
 62
          15
100
AcDbLine
 10
95.13200378418
 20
106.814521789551
 30
0.0
 11
199.322830200195
 21
106.814521789551
 31
0.0
  0
TEXT
  5
303
100
AcDbEntity
  8
0
  6
CONTINUOUS
 62
          15
100
AcDbText
 10
232.171920776367
 20
110.758168034256
 30
0.0
 40
1.0
  1
FUSED AT 3 AMPS
 41
1.000000014901
  7
GOTHICG
100
AcDbText
  0
TEXT
  5
304
100
AcDbEntity
  8
0
  6
CONTINUOUS
 62
          15
100
AcDbText
 10
232.531677246094
 20
112.917568974197
 30
0.0
 40
1.0
  1
240 Vac SUPPLY
 41
1.000000014901
  7
GOTHICG
100
AcDbText
  0
LINE
  5
305
100
AcDbEntity
  8
0
  6
CONTINUOUS
 62
          15
100
AcDbLine
 10
27.335117340088
 20
70.373779296875
 30
0.0
 11
27.335117340088
 21
114.606986999512
 31
0.0
  0
LINE
  5
306
100
AcDbEntity
  8
0
  6
CONTINUOUS
 62
          15
100
AcDbLine
 10
30.605936050415
 20
68.523109436035
 30
0.0
 11
30.605936050415
 21
114.606986999512
 31
0.0
  0
LINE
  5
307
100
AcDbEntity
  8
0
  6
CONTINUOUS
 62
          15
100
AcDbLine
 10
33.448795318604
 20
66.436447143555
 30
0.0
 11
33.448795318604
 21
114.606986999512
 31
0.0
  0
LINE
  5
308
100
AcDbEntity
  8
0
  6
CONTINUOUS
 62
          15
100
AcDbLine
 10
36.413928985596
 20
64.436447143555
 30
0.0
 11
36.413928985596
 21
114.606986999512
 31
0.0
  0
LINE
  5
309
100
AcDbEntity
  8
0
  6
CONTINUOUS
 62
          15
100
AcDbLine
 10
39.470767974854
 20
62.436447143555
 30
0.0
 11
39.470767974854
 21
114.606986999512
 31
0.0
  0
LINE
  5
30A
100
AcDbEntity
  8
0
  6
CONTINUOUS
 62
          15
100
AcDbLine
 10
56.425567626953
 20
75.260719299316
 30
0.0
 11
106.95182800293
 21
75.260719299316
 31
0.0
  0
LINE
  5
30B
100
AcDbEntity
  8
0
  6
CONTINUOUS
 62
          15
100
AcDbLine
 10
60.282104492188
 20
77.260719299316
 30
0.0
 11
111.45182800293
 21
77.260719299316
 31
0.0
  0
LINE
  5
30C
100
AcDbEntity
  8
0
  6
CONTINUOUS
 62
          15
100
AcDbLine
 10
63.124961853027
 20
79.260719299316
 30
0.0
 11
113.70182800293
 21
79.260719299316
 31
0.0
  0
LINE
  5
30D
100
AcDbEntity
  8
0
  6
CONTINUOUS
 62
          15
100
AcDbLine
 10
69.146934509277
 20
83.198051452637
 30
0.0
 11
118.331024169922
 21
83.198051452637
 31
0.0
  0
LINE
  5
30E
100
AcDbEntity
  8
0
  6
CONTINUOUS
 62
          15
100
AcDbLine
 10
60.282104492188
 20
77.260719299316
 30
0.0
 11
60.282104492188
 21
114.606986999512
 31
0.0
  0
LINE
  5
30F
100
AcDbEntity
  8
0
  6
CONTINUOUS
 62
          15
100
AcDbLine
 10
63.124961853027
 20
79.260719299316
 30
0.0
 11
63.124961853027
 21
114.606986999512
 31
0.0
  0
LINE
  5
310
100
AcDbEntity
  8
0
  6
CONTINUOUS
 62
          15
100
AcDbLine
 10
69.146934509277
 20
83.198051452637
 30
0.0
 11
69.146934509277
 21
114.606986999512
 31
0.0
  0
LINE
  5
311
100
AcDbEntity
  8
0
  6
CONTINUOUS
 62
          15
100
AcDbLine
 10
41.898704528809
 20
62.436447143555
 30
0.0
 11
41.898704528809
 21
114.606986999512
 31
0.0
  0
LINE
  5
312
100
AcDbEntity
  8
0
  6
CONTINUOUS
 62
          15
100
AcDbLine
 10
45.169521331787
 20
64.436447143555
 30
0.0
 11
45.169521331787
 21
114.606986999512
 31
0.0
  0
LINE
  5
313
100
AcDbEntity
  8
0
  6
CONTINUOUS
 62
          15
100
AcDbLine
 10
48.012382507324
 20
66.436447143555
 30
0.0
 11
48.012382507324
 21
114.606986999512
 31
0.0
  0
LINE
  5
314
100
AcDbEntity
  8
0
  6
CONTINUOUS
 62
          15
100
AcDbLine
 10
50.977516174316
 20
68.523109436035
 30
0.0
 11
50.977516174316
 21
114.606986999512
 31
0.0
  0
LINE
  5
315
100
AcDbEntity
  8
0
  6
CONTINUOUS
 62
          15
100
AcDbLine
 10
54.034355163574
 20
70.373779296875
 30
0.0
 11
54.034355163574
 21
114.606986999512
 31
0.0
  0
LINE
  5
316
100
AcDbEntity
  8
0
  6
CONTINUOUS
 62
          15
100
AcDbLine
 10
41.898704528809
 20
62.436447143555
 30
0.0
 11
56.996139526367
 21
62.436447143555
 31
0.0
  0
LINE
  5
317
100
AcDbEntity
  8
0
  6
CONTINUOUS
 62
          15
100
AcDbLine
 10
45.169521331787
 20
64.436447143555
 30
0.0
 11
61.496139526367
 21
64.436447143555
 31
0.0
  0
LINE
  5
318
100
AcDbEntity
  8
0
  6
CONTINUOUS
 62
          15
100
AcDbLine
 10
48.012382507324
 20
66.436447143555
 30
0.0
 11
63.746139526367
 21
66.436447143555
 31
0.0
  0
LINE
  5
319
100
AcDbEntity
  8
0
  6
CONTINUOUS
 62
          15
100
AcDbLine
 10
50.977516174316
 20
68.523109436035
 30
0.0
 11
66.189270019531
 21
68.523109436035
 31
0.0
  0
LINE
  5
31A
100
AcDbEntity
  8
0
  6
CONTINUOUS
 62
          15
100
AcDbLine
 10
54.034355163574
 20
70.373779296875
 30
0.0
 11
68.375335693359
 21
70.373779296875
 31
0.0
  0
LINE
  5
31B
100
AcDbEntity
  8
0
  6
CONTINUOUS
 62
          15
100
AcDbLine
 10
106.95182800293
 20
52.045234680176
 30
0.0
 11
106.95182800293
 21
75.260719299316
 31
0.0
  0
LINE
  5
31C
100
AcDbEntity
  8
0
  6
CONTINUOUS
 62
          15
100
AcDbLine
 10
111.45182800293
 20
52.045234680176
 30
0.0
 11
111.45182800293
 21
77.260719299316
 31
0.0
  0
LINE
  5
31D
100
AcDbEntity
  8
0
  6
CONTINUOUS
 62
          15
100
AcDbLine
 10
113.70182800293
 20
52.045234680176
 30
0.0
 11
113.70182800293
 21
79.260719299316
 31
0.0
  0
LINE
  5
31E
100
AcDbEntity
  8
0
  6
CONTINUOUS
 62
          15
100
AcDbLine
 10
118.331024169922
 20
52.118259429932
 30
0.0
 11
118.331024169922
 21
83.198051452637
 31
0.0
  0
LINE
  5
31F
100
AcDbEntity
  8
0
  6
CONTINUOUS
 62
          15
100
AcDbLine
 10
56.996139526367
 20
52.045234680176
 30
0.0
 11
56.996139526367
 21
62.436447143555
 31
0.0
  0
LINE
  5
320
100
AcDbEntity
  8
0
  6
CONTINUOUS
 62
          15
100
AcDbLine
 10
61.496139526367
 20
52.045234680176
 30
0.0
 11
61.496139526367
 21
64.436447143555
 31
0.0
  0
LINE
  5
321
100
AcDbEntity
  8
0
  6
CONTINUOUS
 62
          15
100
AcDbLine
 10
63.746139526367
 20
52.045234680176
 30
0.0
 11
63.746139526367
 21
66.436447143555
 31
0.0
  0
LINE
  5
322
100
AcDbEntity
  8
0
  6
CONTINUOUS
 62
          15
100
AcDbLine
 10
68.375335693359
 20
52.118259429932
 30
0.0
 11
68.375335693359
 21
70.373779296875
 31
0.0
  0
LINE
  5
323
100
AcDbEntity
  8
0
  6
CONTINUOUS
 62
          15
100
AcDbLine
 10
66.189270019531
 20
52.199249267578
 30
0.0
 11
66.189270019531
 21
68.523109436035
 31
0.0
  0
TEXT
  5
324
100
AcDbEntity
  8
0
  6
CONTINUOUS
 62
          15
100
AcDbText
 10
220.56233215332
 20
78.429864510894
 30
0.0
 40
2.0
  1
TYPICAL
  7
GOTHICI
100
AcDbText
  0
TEXT
  5
325
100
AcDbEntity
  8
0
  6
CONTINUOUS
 62
          15
100
AcDbText
 10
42.926132202148
 20
116.298345133662
 30
0.0
 40
1.078992009163
  1
SERVICE B
 41
1.027777737881
  7
TXT
100
AcDbText
  0
LINE
  5
326
100
AcDbEntity
  8
0
  6
CONTINUOUS
 62
          15
100
AcDbLine
 10
4.800874233246
 20
31.163875579834
 30
0.0
 11
20.050874710083
 21
31.163875579834
 31
0.0
  0
LINE
  5
327
100
AcDbEntity
  8
0
  6
CONTINUOUS
 62
          15
100
AcDbLine
 10
25.45018196106
 20
26.040740966797
 30
0.0
 11
27.45018196106
 21
26.040740966797
 31
0.0
  0
LINE
  5
328
100
AcDbEntity
  8
0
  6
CONTINUOUS
 62
          15
100
AcDbLine
 10
18.050874710083
 20
26.040740966797
 30
0.0
 11
20.45018196106
 21
26.040740966797
 31
0.0
  0
LINE
  5
329
100
AcDbEntity
  8
0
  6
CONTINUOUS
 62
          15
100
AcDbLine
 10
25.45018196106
 20
16.040740966797
 30
0.0
 11
27.45018196106
 21
16.040740966797
 31
0.0
  0
LINE
  5
32A
100
AcDbEntity
  8
0
  6
CONTINUOUS
 62
          15
100
AcDbLine
 10
18.050874710083
 20
16.040740966797
 30
0.0
 11
20.45018196106
 21
16.040740966797
 31
0.0
  0
LINE
  5
32B
100
AcDbEntity
  8
0
  6
CONTINUOUS
 62
          15
100
AcDbLine
 10
13.550874710083
 20
16.040740966797
 30
0.0
 11
18.050874710083
 21
16.040740966797
 31
0.0
  0
LINE
  5
32C
100
AcDbEntity
  8
0
  6
CONTINUOUS
 62
          15
100
AcDbLine
 10
25.45018196106
 20
11.040740966797
 30
0.0
 11
27.45018196106
 21
11.040740966797
 31
0.0
  0
LINE
  5
32D
100
AcDbEntity
  8
0
  6
CONTINUOUS
 62
          15
100
AcDbLine
 10
18.050874710083
 20
11.040740966797
 30
0.0
 11
20.45018196106
 21
11.040740966797
 31
0.0
  0
LINE
  5
32E
100
AcDbEntity
  8
0
  6
CONTINUOUS
 62
          15
100
AcDbLine
 10
11.300874710083
 20
11.040740966797
 30
0.0
 11
18.050874710083
 21
11.040740966797
 31
0.0
  0
LINE
  5
32F
100
AcDbEntity
  8
0
  6
CONTINUOUS
 62
          15
100
AcDbLine
 10
25.45018196106
 20
26.040740966797
 30
0.0
 11
25.45018196106
 21
28.040740966797
 31
0.0
  0
LINE
  5
330
100
AcDbEntity
  8
0
  6
CONTINUOUS
 62
          15
100
AcDbLine
 10
25.45018196106
 20
16.040740966797
 30
0.0
 11
25.45018196106
 21
18.040740966797
 31
0.0
  0
LINE
  5
331
100
AcDbEntity
  8
0
  6
CONTINUOUS
 62
          15
100
AcDbLine
 10
25.45018196106
 20
11.040740966797
 30
0.0
 11
25.45018196106
 21
13.040740966797
 31
0.0
  0
LINE
  5
332
100
AcDbEntity
  8
0
  6
CONTINUOUS
 62
          15
100
AcDbLine
 10
20.45018196106
 20
11.040740966797
 30
0.0
 11
25.95018196106
 21
13.040740966797
 31
0.0
  0
LINE
  5
333
100
AcDbEntity
  8
0
  6
CONTINUOUS
 62
          15
100
AcDbLine
 10
20.45018196106
 20
16.040740966797
 30
0.0
 11
25.95018196106
 21
18.040740966797
 31
0.0
  0
LINE
  5
334
100
AcDbEntity
  8
0
  6
CONTINUOUS
 62
          15
100
AcDbLine
 10
20.45018196106
 20
26.040740966797
 30
0.0
 11
25.95018196106
 21
28.040740966797
 31
0.0
  0
LINE
  5
335
100
AcDbEntity
  8
0
  6
CONTINUOUS
 62
          15
100
AcDbLine
 10
9.050874710083
 20
6.040740013123
 30
0.0
 11
39.794803619385
 21
6.040740013123
 31
0.0
  0
LINE
  5
336
100
AcDbEntity
  8
0
  6
CONTINUOUS
 62
          15
100
AcDbLine
 10
4.800874233246
 20
31.163875579834
 30
0.0
 11
4.800874233246
 21
52.15209197998
 31
0.0
  0
LINE
  5
337
100
AcDbEntity
  8
0
  6
CONTINUOUS
 62
          15
100
AcDbLine
 10
20.050874710083
 20
31.163875579834
 30
0.0
 11
20.050874710083
 21
52.15209197998
 31
0.0
  0
LINE
  5
338
100
AcDbEntity
  8
0
  6
CONTINUOUS
 62
          15
100
AcDbLine
 10
5.800874233246
 20
31.163875579834
 30
0.0
 11
5.800874233246
 21
38.447170257568
 31
0.0
  0
LINE
  5
339
100
AcDbEntity
  8
0
  6
CONTINUOUS
 62
          15
100
AcDbLine
 10
18.050874710083
 20
26.040740966797
 30
0.0
 11
18.050874710083
 21
31.163875579834
 31
0.0
  0
LINE
  5
33A
100
AcDbEntity
  8
0
  6
CONTINUOUS
 62
          15
100
AcDbLine
 10
13.550874710083
 20
16.040740966797
 30
0.0
 11
13.550874710083
 21
31.163875579834
 31
0.0
  0
LINE
  5
33B
100
AcDbEntity
  8
0
  6
CONTINUOUS
 62
          15
100
AcDbLine
 10
11.300874710083
 20
11.040740966797
 30
0.0
 11
11.300874710083
 21
31.163875579834
 31
0.0
  0
LINE
  5
33C
100
AcDbEntity
  8
0
  6
CONTINUOUS
 62
          15
100
AcDbLine
 10
9.050874710083
 20
6.040740013123
 30
0.0
 11
9.050874710083
 21
31.163875579834
 31
0.0
  0
LINE
  5
33D
100
AcDbEntity
  8
0
  6
CONTINUOUS
 62
          15
100
AcDbLine
 10
19.050874710083
 20
31.163875579834
 30
0.0
 11
19.050874710083
 21
38.447170257568
 31
0.0
  0
LINE
  5
33E
100
AcDbEntity
  8
0
  6
CONTINUOUS
 62
          15
100
AcDbLine
 10
27.45018196106
 20
26.040740966797
 30
0.0
 11
28.925241470337
 21
26.040740966797
 31
0.0
  0
LINE
  5
33F
100
AcDbEntity
  8
0
  6
CONTINUOUS
 62
          15
100
AcDbLine
 10
27.45018196106
 20
16.040740966797
 30
0.0
 11
39.794803619385
 21
16.040740966797
 31
0.0
  0
LINE
  5
340
100
AcDbEntity
  8
0
  6
CONTINUOUS
 62
          15
100
AcDbLine
 10
27.45018196106
 20
11.040740966797
 30
0.0
 11
39.794803619385
 21
11.040740966797
 31
0.0
  0
LINE
  5
341
100
AcDbEntity
  8
0
  6
CONTINUOUS
 62
          15
100
AcDbLine
 10
4.800874233246
 20
52.15209197998
 30
0.0
 11
20.050874710083
 21
52.15209197998
 31
0.0
  0
LINE
  5
342
100
AcDbEntity
  8
0
  6
CONTINUOUS
 62
          15
100
AcDbLine
 10
5.800874233246
 20
45.086223602295
 30
0.0
 11
5.800874233246
 21
52.15209197998
 31
0.0
  0
LINE
  5
343
100
AcDbEntity
  8
0
  6
CONTINUOUS
 62
          15
100
AcDbLine
 10
19.050874710083
 20
45.086223602295
 30
0.0
 11
19.050874710083
 21
52.15209197998
 31
0.0
  0
LINE
  5
344
100
AcDbEntity
  8
0
  6
CONTINUOUS
 62
          15
100
AcDbLine
 10
5.800874233246
 20
38.447170257568
 30
0.0
 11
19.050874710083
 21
38.447170257568
 31
0.0
  0
LINE
  5
345
100
AcDbEntity
  8
0
  6
CONTINUOUS
 62
          15
100
AcDbLine
 10
5.800874233246
 20
35.447170257568
 30
0.0
 11
19.050874710083
 21
35.447170257568
 31
0.0
  0
CIRCLE
  5
346
100
AcDbEntity
  8
0
  6
CONTINUOUS
 62
          15
100
AcDbCircle
 10
6.800874233246
 20
36.947170257568
 30
0.0
 40
0.5
  0
CIRCLE
  5
347
100
AcDbEntity
  8
0
  6
CONTINUOUS
 62
          15
100
AcDbCircle
 10
9.050874710083
 20
36.947170257568
 30
0.0
 40
0.5
  0
CIRCLE
  5
348
100
AcDbEntity
  8
0
  6
CONTINUOUS
 62
          15
100
AcDbCircle
 10
11.300874710083
 20
36.947170257568
 30
0.0
 40
0.5
  0
CIRCLE
  5
349
100
AcDbEntity
  8
0
  6
CONTINUOUS
 62
          15
100
AcDbCircle
 10
13.550874710083
 20
36.947170257568
 30
0.0
 40
0.5
  0
CIRCLE
  5
34A
100
AcDbEntity
  8
0
  6
CONTINUOUS
 62
          15
100
AcDbCircle
 10
15.800875663757
 20
36.947170257568
 30
0.0
 40
0.5
  0
CIRCLE
  5
34B
100
AcDbEntity
  8
0
  6
CONTINUOUS
 62
          15
100
AcDbCircle
 10
18.050874710083
 20
36.947170257568
 30
0.0
 40
0.5
  0
TEXT
  5
34C
100
AcDbEntity
  8
0
  6
CONTINUOUS
 62
          15
100
AcDbText
 10
10.929841995239
 20
34.1331307441
 30
0.0
 40
0.819999992847
  1
1234
 41
2.743902462958
  7
ROMANT
100
AcDbText
  0
TEXT
  5
34D
100
AcDbEntity
  8
0
  6
CONTINUOUS
 62
          15
100
AcDbText
 10
8.79368019104
 20
39.420087441802
 30
0.0
 40
2.0
  1
TB4
 41
1.400000035763
  7
ROMANT
100
AcDbText
  0
TEXT
  5
34E
100
AcDbEntity
  8
0
  6
CONTINUOUS
 62
          15
100
AcDbText
 10
8.069246292114
 20
43.406163886189
 30
0.0
 40
0.819999992847
  1
TERMINATION
 41
1.024390239027
  7
ROMANT
100
AcDbText
  0
TEXT
  5
34F
100
AcDbEntity
  8
0
  6
CONTINUOUS
 62
          15
100
AcDbText
 10
10.604776382446
 20
42.17410440743
 30
0.0
 40
0.819999992847
  1
BOARD
 41
1.024390239027
  7
ROMANT
100
AcDbText
  0
TEXT
  5
350
100
AcDbEntity
  8
0
  6
CONTINUOUS
 62
          15
100
AcDbText
 10
7.528047084808
 20
34.095651343465
 30
0.0
 40
0.819999992847
  1
C
 41
0.804878037811
  7
ROMANT
100
AcDbText
  0
LINE
  5
351
100
AcDbEntity
  8
0
  6
CONTINUOUS
 62
          15
100
AcDbLine
 10
5.800874233246
 20
33.734302520752
 30
0.0
 11
18.996011734009
 21
33.734302520752
 31
0.0
  0
LINE
  5
352
100
AcDbEntity
  8
0
  6
CONTINUOUS
 62
          15
100
AcDbLine
 10
17.009431838989
 20
33.734302520752
 30
0.0
 11
17.009431838989
 21
35.447170257568
 31
0.0
  0
LINE
  5
353
100
AcDbEntity
  8
0
  6
CONTINUOUS
 62
          15
100
AcDbLine
 10
14.706812858582
 20
33.734302520752
 30
0.0
 11
14.706812858582
 21
35.447170257568
 31
0.0
  0
LINE
  5
354
100
AcDbEntity
  8
0
  6
CONTINUOUS
 62
          15
100
AcDbLine
 10
12.494493484497
 20
33.734302520752
 30
0.0
 11
12.494493484497
 21
35.447170257568
 31
0.0
  0
LINE
  5
355
100
AcDbEntity
  8
0
  6
CONTINUOUS
 62
          15
100
AcDbLine
 10
10.237016677856
 20
33.734302520752
 30
0.0
 11
10.237016677856
 21
35.447170257568
 31
0.0
  0
LINE
  5
356
100
AcDbEntity
  8
0
  6
CONTINUOUS
 62
          15
100
AcDbLine
 10
5.800874233246
 20
48.086223602295
 30
0.0
 11
19.050874710083
 21
48.086223602295
 31
0.0
  0
LINE
  5
357
100
AcDbEntity
  8
0
  6
CONTINUOUS
 62
          15
100
AcDbLine
 10
5.800874233246
 20
45.086223602295
 30
0.0
 11
19.050874710083
 21
45.086223602295
 31
0.0
  0
CIRCLE
  5
358
100
AcDbEntity
  8
0
  6
CONTINUOUS
 62
          15
100
AcDbCircle
 10
6.800874233246
 20
46.586223602295
 30
0.0
 40
0.5
  0
CIRCLE
  5
359
100
AcDbEntity
  8
0
  6
CONTINUOUS
 62
          15
100
AcDbCircle
 10
9.050874710083
 20
46.586223602295
 30
0.0
 40
0.5
  0
CIRCLE
  5
35A
100
AcDbEntity
  8
0
  6
CONTINUOUS
 62
          15
100
AcDbCircle
 10
11.300874710083
 20
46.586223602295
 30
0.0
 40
0.5
  0
CIRCLE
  5
35B
100
AcDbEntity
  8
0
  6
CONTINUOUS
 62
          15
100
AcDbCircle
 10
13.550874710083
 20
46.586223602295
 30
0.0
 40
0.5
  0
CIRCLE
  5
35C
100
AcDbEntity
  8
0
  6
CONTINUOUS
 62
          15
100
AcDbCircle
 10
15.800875663757
 20
46.586223602295
 30
0.0
 40
0.5
  0
CIRCLE
  5
35D
100
AcDbEntity
  8
0
  6
CONTINUOUS
 62
          15
100
AcDbCircle
 10
18.050874710083
 20
46.586223602295
 30
0.0
 40
0.5
  0
TEXT
  5
35E
100
AcDbEntity
  8
0
  6
CONTINUOUS
 62
          15
100
AcDbText
 10
10.934785842896
 20
48.558248236775
 30
0.0
 40
0.819999992847
  1
1234
 41
2.743902462958
  7
ROMANT
100
AcDbText
  0
TEXT
  5
35F
100
AcDbEntity
  8
0
  6
CONTINUOUS
 62
          15
100
AcDbText
 10
7.437753200531
 20
48.459169104695
 30
0.0
 40
0.819999992847
  1
C
 41
0.804878037811
  7
ROMANT
100
AcDbText
  0
LINE
  5
360
100
AcDbEntity
  8
0
  6
CONTINUOUS
 62
          15
100
AcDbLine
 10
17.009431838989
 20
48.086223602295
 30
0.0
 11
17.009431838989
 21
49.656169891357
 31
0.0
  0
LINE
  5
361
100
AcDbEntity
  8
0
  6
CONTINUOUS
 62
          15
100
AcDbLine
 10
14.706812858582
 20
48.086223602295
 30
0.0
 11
14.706812858582
 21
49.656169891357
 31
0.0
  0
LINE
  5
362
100
AcDbEntity
  8
0
  6
CONTINUOUS
 62
          15
100
AcDbLine
 10
12.494493484497
 20
48.086223602295
 30
0.0
 11
12.494493484497
 21
49.656169891357
 31
0.0
  0
LINE
  5
363
100
AcDbEntity
  8
0
  6
CONTINUOUS
 62
          15
100
AcDbLine
 10
10.237016677856
 20
48.086223602295
 30
0.0
 11
10.237016677856
 21
49.656169891357
 31
0.0
  0
LINE
  5
364
100
AcDbEntity
  8
0
  6
CONTINUOUS
 62
          15
100
AcDbLine
 10
5.800874233246
 20
49.656169891357
 30
0.0
 11
18.996011734009
 21
49.656169891357
 31
0.0
  0
TEXT
  5
365
100
AcDbEntity
  8
0
  6
CONTINUOUS
 62
          15
100
AcDbText
 10
6.856164455414
 20
50.182208418846
 30
0.0
 40
1.200000047684
  1
TO ALARM
 41
1.249999950329
  7
ROMANT
100
AcDbText
  0
TEXT
  5
366
100
AcDbEntity
  8
0
  6
CONTINUOUS
 62
          15
100
AcDbText
 10
6.693604946136
 20
31.866992354393
 30
0.0
 40
1.200000047684
  1
TO PLANT
 41
1.249999950329
  7
ROMANT
100
AcDbText
  0
LINE
  5
367
100
AcDbEntity
  8
0
  6
CONTINUOUS
 62
          15
100
AcDbLine
 10
36.324558258057
 20
26.040740966797
 30
0.0
 11
38.324558258057
 21
26.040740966797
 31
0.0
  0
LINE
  5
368
100
AcDbEntity
  8
0
  6
CONTINUOUS
 62
          15
100
AcDbLine
 10
28.925241470337
 20
26.040740966797
 30
0.0
 11
31.324550628662
 21
26.040740966797
 31
0.0
  0
LINE
  5
369
100
AcDbEntity
  8
0
  6
CONTINUOUS
 62
          15
100
AcDbLine
 10
36.324558258057
 20
26.040740966797
 30
0.0
 11
36.324558258057
 21
28.040740966797
 31
0.0
  0
LINE
  5
36A
100
AcDbEntity
  8
0
  6
CONTINUOUS
 62
          15
100
AcDbLine
 10
31.324550628662
 20
26.040740966797
 30
0.0
 11
36.824558258057
 21
28.040740966797
 31
0.0
  0
LINE
  5
36B
100
AcDbEntity
  8
0
  6
CONTINUOUS
 62
          15
100
AcDbLine
 10
38.324558258057
 20
26.040740966797
 30
0.0
 11
39.794803619385
 21
26.040740966797
 31
0.0
  0
LINE
  5
36C
100
AcDbEntity
  8
0
  6
CONTINUOUS
 62
          15
100
AcDbLine
 10
39.794803619385
 20
6.040740013123
 30
0.0
 11
39.794803619385
 21
26.040740966797
 31
0.0
  0
TEXT
  5
36D
100
AcDbEntity
  8
0
  6
CONTINUOUS
 62
          15
100
AcDbText
 10
20.764337539673
 20
31.15373557061
 30
0.0
 40
1.049999952316
  1
  HIGH
 41
1.238095305674
  7
ROMANT
100
AcDbText
  0
TEXT
  5
36E
100
AcDbEntity
  8
0
  6
CONTINUOUS
 62
          15
100
AcDbText
 10
20.764337539673
 20
29.473735623062
 30
0.0
 40
1.049999952316
  1
PRESSURE
 41
1.238095305674
  7
ROMANT
100
AcDbText
  0
TEXT
  5
36F
100
AcDbEntity
  8
0
  6
CONTINUOUS
 62
          15
100
AcDbText
 10
32.070262908936
 20
31.15373557061
 30
0.0
 40
1.049999952316
  1
  LOW
 41
1.238095305674
  7
ROMANT
100
AcDbText
  0
TEXT
  5
370
100
AcDbEntity
  8
0
  6
CONTINUOUS
 62
          15
100
AcDbText
 10
32.070262908936
 20
29.473735623062
 30
0.0
 40
1.049999952316
  1
PRESSURE
 41
1.238095305674
  7
ROMANT
100
AcDbText
  0
LINE
  5
371
100
AcDbEntity
  8
0
  6
CONTINUOUS
 62
          15
100
AcDbLine
 10
25.481622695923
 20
20.506488800049
 30
0.0
 11
27.481622695923
 21
20.506488800049
 31
0.0
  0
LINE
  5
372
100
AcDbEntity
  8
0
  6
CONTINUOUS
 62
          15
100
AcDbLine
 10
18.082315444946
 20
20.506488800049
 30
0.0
 11
20.481622695923
 21
20.506488800049
 31
0.0
  0
LINE
  5
373
100
AcDbEntity
  8
0
  6
CONTINUOUS
 62
          15
100
AcDbLine
 10
15.800875663757
 20
20.506488800049
 30
0.0
 11
18.082315444946
 21
20.506488800049
 31
0.0
  0
LINE
  5
374
100
AcDbEntity
  8
0
  6
CONTINUOUS
 62
          15
100
AcDbLine
 10
25.481622695923
 20
20.506488800049
 30
0.0
 11
25.481622695923
 21
22.506488800049
 31
0.0
  0
LINE
  5
375
100
AcDbEntity
  8
0
  6
CONTINUOUS
 62
          15
100
AcDbLine
 10
20.481622695923
 20
20.506488800049
 30
0.0
 11
25.981622695923
 21
22.506488800049
 31
0.0
  0
LINE
  5
376
100
AcDbEntity
  8
0
  6
CONTINUOUS
 62
          15
100
AcDbLine
 10
27.481622695923
 20
20.506488800049
 30
0.0
 11
39.826251983643
 21
20.506488800049
 31
0.0
  0
LINE
  5
377
100
AcDbEntity
  8
0
  6
CONTINUOUS
 62
          15
100
AcDbLine
 10
15.800875663757
 20
20.506488800049
 30
0.0
 11
15.800875663757
 21
31.163875579834
 31
0.0
  0
LINE
  5
378
100
AcDbEntity
  8
0
  6
CONTINUOUS
 62
          15
100
AcDbLine
 10
6.651535511017
 20
51.964241027832
 30
0.0
 11
6.651535511017
 21
70.373779296875
 31
0.0
  0
LINE
  5
379
100
AcDbEntity
  8
0
  6
CONTINUOUS
 62
          15
100
AcDbLine
 10
11.151535987854
 20
51.964241027832
 30
0.0
 11
11.151535987854
 21
68.523109436035
 31
0.0
  0
LINE
  5
37A
100
AcDbEntity
  8
0
  6
CONTINUOUS
 62
          15
100
AcDbLine
 10
13.401535987854
 20
51.964241027832
 30
0.0
 11
13.401535987854
 21
66.436447143555
 31
0.0
  0
LINE
  5
37B
100
AcDbEntity
  8
0
  6
CONTINUOUS
 62
          15
100
AcDbLine
 10
18.030731201172
 20
52.037265777588
 30
0.0
 11
18.030731201172
 21
62.436447143555
 31
0.0
  0
LINE
  5
37C
100
AcDbEntity
  8
0
  6
CONTINUOUS
 62
          15
100
AcDbLine
 10
15.844666481018
 20
52.118255615234
 30
0.0
 11
15.844666481018
 21
64.436447143555
 31
0.0
  0
LINE
  5
37D
100
AcDbEntity
  8
0
  6
CONTINUOUS
 62
          15
100
AcDbLine
 10
18.030731201172
 20
62.436447143555
 30
0.0
 11
39.470767974854
 21
62.436447143555
 31
0.0
  0
LINE
  5
37E
100
AcDbEntity
  8
0
  6
CONTINUOUS
 62
          15
100
AcDbLine
 10
15.844666481018
 20
64.436447143555
 30
0.0
 11
36.413928985596
 21
64.436447143555
 31
0.0
  0
LINE
  5
37F
100
AcDbEntity
  8
0
  6
CONTINUOUS
 62
          15
100
AcDbLine
 10
13.401535987854
 20
66.436447143555
 30
0.0
 11
33.448795318604
 21
66.436447143555
 31
0.0
  0
LINE
  5
380
100
AcDbEntity
  8
0
  6
CONTINUOUS
 62
          15
100
AcDbLine
 10
11.151535987854
 20
68.523109436035
 30
0.0
 11
30.605936050415
 21
68.523109436035
 31
0.0
  0
LINE
  5
381
100
AcDbEntity
  8
0
  6
CONTINUOUS
 62
          15
100
AcDbLine
 10
6.651535511017
 20
70.373779296875
 30
0.0
 11
27.335117340088
 21
70.373779296875
 31
0.0
  0
TEXT
  5
382
100
AcDbEntity
  8
0
  6
CONTINUOUS
 62
          15
100
AcDbText
 10
223.972900390625
 20
109.378506474197
 30
0.0
 40
1.0
  1
LIVE
 41
1.000000014901
  7
GOTHICG
100
AcDbText
  0
TEXT
  5
383
100
AcDbEntity
  8
0
  6
CONTINUOUS
 62
          15
100
AcDbText
 10
224.078216552734
 20
114.287602238357
 30
0.0
 40
1.0
  1
NEUTRAL
 41
1.000000014901
  7
GOTHICG
100
AcDbText
  0
TEXT
  5
384
100
AcDbEntity
  8
0
  6
CONTINUOUS
 62
          15
100
AcDbText
 10
124.047286987305
 20
48.151972979307
 30
0.0
 40
1.5
  1
NOTE
 41
0.933333337307
  7
GOTHICG
100
AcDbText
  0
TEXT
  5
385
100
AcDbEntity
  8
0
  6
CONTINUOUS
 62
          15
100
AcDbText
 10
124.047286987305
 20
45.75197288394
 30
0.0
 40
1.5
  1
TERMINATION BOARDS
 41
0.933333337307
  7
GOTHICG
100
AcDbText
  0
TEXT
  5
386
100
AcDbEntity
  8
0
  6
CONTINUOUS
 62
          15
100
AcDbText
 10
124.047286987305
 20
43.351972788572
 30
0.0
 40
1.5
  1
AND BOXES MUST BE
 41
0.933333337307
  7
GOTHICG
100
AcDbText
  0
TEXT
  5
387
100
AcDbEntity
  8
0
  6
CONTINUOUS
 62
          15
100
AcDbText
 10
124.047286987305
 20
40.951972693205
 30
0.0
 40
1.5
  1
MOUNTED AS CLOSE
 41
0.933333337307
  7
GOTHICG
100
AcDbText
  0
TEXT
  5
388
100
AcDbEntity
  8
0
  6
CONTINUOUS
 62
          15
100
AcDbText
 10
124.047286987305
 20
38.551972597837
 30
0.0
 40
1.5
  1
AS POSSIBLE TO THE
 41
0.933333337307
  7
GOTHICG
100
AcDbText
  0
TEXT
  5
389
100
AcDbEntity
  8
0
  6
CONTINUOUS
 62
          15
100
AcDbText
 10
124.047286987305
 20
36.15197250247
 30
0.0
 40
1.5
  1
PLANT OR MANIFOLD
 41
0.933333337307
  7
GOTHICG
100
AcDbText
  0
TEXT
  5
38A
100
AcDbEntity
  8
0
  6
CONTINUOUS
 62
          15
100
AcDbText
 10
124.047286987305
 20
33.751972407103
 30
0.0
 40
1.5
  1
CONTACTS
 41
0.933333337307
  7
GOTHICG
100
AcDbText
  0
LINE
  5
38B
100
AcDbEntity
  8
0
  6
CONTINUOUS
 62
          15
100
AcDbLine
 10
125.658737182617
 20
20.690824508667
 30
0.0
 11
127.658737182617
 21
20.690824508667
 31
0.0
  0
LINE
  5
38C
100
AcDbEntity
  8
0
  6
CONTINUOUS
 62
          15
100
AcDbLine
 10
118.296630859375
 20
20.690824508667
 30
0.0
 11
120.658737182617
 21
20.690824508667
 31
0.0
  0
LINE
  5
38D
100
AcDbEntity
  8
0
  6
CONTINUOUS
 62
          15
100
AcDbLine
 10
125.658737182617
 20
20.690824508667
 30
0.0
 11
125.658737182617
 21
22.690824508667
 31
0.0
  0
LINE
  5
38E
100
AcDbEntity
  8
0
  6
CONTINUOUS
 62
          15
100
AcDbLine
 10
120.658737182617
 20
20.690824508667
 30
0.0
 11
126.158737182617
 21
22.690824508667
 31
0.0
  0
LINE
  5
38F
100
AcDbEntity
  8
0
  6
CONTINUOUS
 62
          15
100
AcDbLine
 10
127.658737182617
 20
20.690824508667
 30
0.0
 11
140.001556396484
 21
20.690824508667
 31
0.0
  0
LINE
  5
390
100
AcDbEntity
  8
0
  6
CONTINUOUS
 62
          15
100
AcDbLine
 10
118.296630859375
 20
20.690824508667
 30
0.0
 11
118.296630859375
 21
31.059108734131
 31
0.0
  0
TEXT
  5
391
100
AcDbEntity
  8
0
  6
CONTINUOUS
 62
          15
100
AcDbText
 10
142.71076965332
 20
26.90832388401
 30
0.0
 40
1.299999952316
  1

 41
1.153846196169
  7
GOTHICI
100
AcDbText
  0
TEXT
  5
392
100
AcDbEntity
  8
0
  6
CONTINUOUS
 62
          15
100
AcDbText
 10
142.71076965332
 20
25.088323950768
 30
0.0
 40
1.299999952316
  1

 41
1.153846196169
  7
GOTHICI
100
AcDbText
  0
TEXT
  5
393
100
AcDbEntity
  8
0
  6
CONTINUOUS
 62
          15
100
AcDbText
 10
142.71076965332
 20
23.268324017525
 30
0.0
 40
1.299999952316
  1

 41
1.153846196169
  7
GOTHICI
100
AcDbText
  0
TEXT
  5
394
100
AcDbEntity
  8
0
  6
CONTINUOUS
 62
          15
100
AcDbText
 10
142.71076965332
 20
21.448324084282
 30
0.0
 40
1.299999952316
  1
PRESSURE
 41
1.153846196169
  7
GOTHICI
100
AcDbText
  0
TEXT
  5
395
100
AcDbEntity
  8
0
  6
CONTINUOUS
 62
          15
100
AcDbText
 10
142.71076965332
 20
19.628324151039
 30
0.0
 40
1.299999952316
  1
FAULT
 41
1.153846196169
  7
GOTHICI
100
AcDbText
  0
TEXT
  5
396
100
AcDbEntity
  8
0
  6
CONTINUOUS
 62
          15
100
AcDbText
 10
142.71076965332
 20
17.808324217796
 30
0.0
 40
1.299999952316
  1

 41
1.153846196169
  7
GOTHICI
100
AcDbText
  0
TEXT
  5
397
100
AcDbEntity
  8
0
  6
CONTINUOUS
 62
          15
100
AcDbText
 10
142.71076965332
 20
15.988324284554
 30
0.0
 40
1.299999952316
  1
PLANT
 41
1.153846196169
  7
GOTHICI
100
AcDbText
  0
TEXT
  5
398
100
AcDbEntity
  8
0
  6
CONTINUOUS
 62
          15
100
AcDbText
 10
142.71076965332
 20
14.168324351311
 30
0.0
 40
1.299999952316
  1
EMERGENCY
 41
1.153846196169
  7
GOTHICI
100
AcDbText
  0
TEXT
  5
399
100
AcDbEntity
  8
0
  6
CONTINUOUS
 62
          15
100
AcDbText
 10
142.71076965332
 20
12.348324418068
 30
0.0
 40
1.299999952316
  1

 41
1.153846196169
  7
GOTHICI
100
AcDbText
  0
TEXT
  5
39A
100
AcDbEntity
  8
0
  6
CONTINUOUS
 62
          15
100
AcDbText
 10
142.71076965332
 20
10.528324484825
 30
0.0
 40
1.299999952316
  1
PLANT
 41
1.153846196169
  7
GOTHICI
100
AcDbText
  0
TEXT
  5
39B
100
AcDbEntity
  8
0
  6
CONTINUOUS
 62
          15
100
AcDbText
 10
142.71076965332
 20
8.708324551582
 30
0.0
 40
1.299999952316
  1
FAULT
 41
1.153846196169
  7
GOTHICI
100
AcDbText
  0
TEXT
  5
39C
100
AcDbEntity
  8
0
  6
CONTINUOUS
 62
          15
100
AcDbText
 10
107.812637329102
 20
3.641100928187
 30
0.0
 40
1.350000023842
  1
CONTACTS & PRESSURE SWITCHES
 41
1.111111091488
  7
GOTHICI
100
AcDbText
  0
TEXT
  5
39D
100
AcDbEntity
  8
0
  6
CONTINUOUS
 62
          15
100
AcDbText
 10
117.314895629883
 20
7.349020257592
 30
0.0
 40
1.700000047684
  1
VACUUM
 41
1.235294097023
  7
GOTHICI
100
AcDbText
  0
LINE
  5
39E
100
AcDbEntity
  8
0
  6
CONTINUOUS
 62
          15
100
AcDbLine
 10
56.425567626953
 20
114.606986999512
 30
0.0
 11
56.425567626953
 21
122.422828674316
 31
0.0
  0
LINE
  5
39F
100
AcDbEntity
  8
0
  6
CONTINUOUS
 62
          15
100
AcDbLine
 10
56.425567626953
 20
75.260719299316
 30
0.0
 11
56.425567626953
 21
114.606986999512
 31
0.0
  0
LINE
  5
3A0
100
AcDbEntity
  8
0
  6
CONTINUOUS
 62
          15
100
AcDbLine
 10
57.511032104492
 20
114.695877075195
 30
0.0
 11
57.511032104492
 21
122.51171875
 31
0.0
  0
LINE
  5
3A1
100
AcDbEntity
  8
0
  6
CONTINUOUS
 62
          15
100
AcDbLine
 10
57.511032104492
 20
102.40283203125
 30
0.0
 11
57.511032104492
 21
114.695877075195
 31
0.0
  0
TEXT
  5
3A2
100
AcDbEntity
  8
0
  6
CONTINUOUS
 62
          15
100
AcDbText
 10
41.78855807718
 20
26.90832388401
 30
0.0
 40
1.299999952316
  1
PRESSURE
 41
1.153846196169
  7
GOTHICI
100
AcDbText
  0
TEXT
  5
3A3
100
AcDbEntity
  8
0
  6
CONTINUOUS
 62
          15
100
AcDbText
 10
41.78855807718
 20
25.088323950768
 30
0.0
 40
1.299999952316
  1
FAULT
 41
1.153846196169
  7
GOTHICI
100
AcDbText
  0
TEXT
  5
3A4
100
AcDbEntity
  8
0
  6
CONTINUOUS
 62
          15
100
AcDbText
 10
41.78855807718
 20
23.268324017525
 30
0.0
 40
1.299999952316
  1

 41
1.153846196169
  7
GOTHICI
100
AcDbText
  0
TEXT
  5
3A5
100
AcDbEntity
  8
0
  6
CONTINUOUS
 62
          15
100
AcDbText
 10
41.78855807718
 20
21.448324084282
 30
0.0
 40
1.299999952316
  1
RESERVE
 41
1.153846196169
  7
GOTHICI
100
AcDbText
  0
TEXT
  5
3A6
100
AcDbEntity
  8
0
  6
CONTINUOUS
 62
          15
100
AcDbText
 10
41.78855807718
 20
19.628324151039
 30
0.0
 40
1.299999952316
  1
LOW
 41
1.153846196169
  7
GOTHICI
100
AcDbText
  0
TEXT
  5
3A7
100
AcDbEntity
  8
0
  6
CONTINUOUS
 62
          15
100
AcDbText
 10
41.78855807718
 20
17.808324217796
 30
0.0
 40
1.299999952316
  1

 41
1.153846196169
  7
GOTHICI
100
AcDbText
  0
TEXT
  5
3A8
100
AcDbEntity
  8
0
  6
CONTINUOUS
 62
          15
100
AcDbText
 10
41.78855807718
 20
15.988324284554
 30
0.0
 40
1.299999952316
  1
PLANT
 41
1.153846196169
  7
GOTHICI
100
AcDbText
  0
TEXT
  5
3A9
100
AcDbEntity
  8
0
  6
CONTINUOUS
 62
          15
100
AcDbText
 10
41.78855807718
 20
14.168324351311
 30
0.0
 40
1.299999952316
  1
EMERGENCY
 41
1.153846196169
  7
GOTHICI
100
AcDbText
  0
TEXT
  5
3AA
100
AcDbEntity
  8
0
  6
CONTINUOUS
 62
          15
100
AcDbText
 10
41.78855807718
 20
12.348324418068
 30
0.0
 40
1.299999952316
  1

 41
1.153846196169
  7
GOTHICI
100
AcDbText
  0
TEXT
  5
3AB
100
AcDbEntity
  8
0
  6
CONTINUOUS
 62
          15
100
AcDbText
 10
41.78855807718
 20
10.528324484825
 30
0.0
 40
1.299999952316
  1
PLANT
 41
1.153846196169
  7
GOTHICI
100
AcDbText
  0
TEXT
  5
3AC
100
AcDbEntity
  8
0
  6
CONTINUOUS
 62
          15
100
AcDbText
 10
41.78855807718
 20
8.708324551582
 30
0.0
 40
1.299999952316
  1
FAULT
 41
1.153846196169
  7
GOTHICI
100
AcDbText
  0
TEXT
  5
3AD
100
AcDbEntity
  8
0
  6
CONTINUOUS
 62
          15
100
AcDbText
 10
91.816521326297
 20
26.90832388401
 30
0.0
 40
1.299999952316
  1
PRESSURE
 41
1.153846196169
  7
GOTHICI
100
AcDbText
  0
TEXT
  5
3AE
100
AcDbEntity
  8
0
  6
CONTINUOUS
 62
          15
100
AcDbText
 10
91.816521326297
 20
25.088323950768
 30
0.0
 40
1.299999952316
  1
FAULT
 41
1.153846196169
  7
GOTHICI
100
AcDbText
  0
TEXT
  5
3AF
100
AcDbEntity
  8
0
  6
CONTINUOUS
 62
          15
100
AcDbText
 10
91.816521326297
 20
23.268324017525
 30
0.0
 40
1.299999952316
  1

 41
1.153846196169
  7
GOTHICI
100
AcDbText
  0
TEXT
  5
3B0
100
AcDbEntity
  8
0
  6
CONTINUOUS
 62
          15
100
AcDbText
 10
91.816521326297
 20
21.448324084282
 30
0.0
 40
1.299999952316
  1
RESERVE
 41
1.153846196169
  7
GOTHICI
100
AcDbText
  0
TEXT
  5
3B1
100
AcDbEntity
  8
0
  6
CONTINUOUS
 62
          15
100
AcDbText
 10
91.816521326297
 20
19.628324151039
 30
0.0
 40
1.299999952316
  1
LOW
 41
1.153846196169
  7
GOTHICI
100
AcDbText
  0
TEXT
  5
3B2
100
AcDbEntity
  8
0
  6
CONTINUOUS
 62
          15
100
AcDbText
 10
91.816521326297
 20
17.808324217796
 30
0.0
 40
1.299999952316
  1

 41
1.153846196169
  7
GOTHICI
100
AcDbText
  0
TEXT
  5
3B3
100
AcDbEntity
  8
0
  6
CONTINUOUS
 62
          15
100
AcDbText
 10
91.816521326297
 20
15.988324284554
 30
0.0
 40
1.299999952316
  1
PLANT
 41
1.153846196169
  7
GOTHICI
100
AcDbText
  0
TEXT
  5
3B4
100
AcDbEntity
  8
0
  6
CONTINUOUS
 62
          15
100
AcDbText
 10
91.816521326297
 20
14.168324351311
 30
0.0
 40
1.299999952316
  1
EMERGENCY
 41
1.153846196169
  7
GOTHICI
100
AcDbText
  0
TEXT
  5
3B5
100
AcDbEntity
  8
0
  6
CONTINUOUS
 62
          15
100
AcDbText
 10
91.816521326297
 20
12.348324418068
 30
0.0
 40
1.299999952316
  1

 41
1.153846196169
  7
GOTHICI
100
AcDbText
  0
TEXT
  5
3B6
100
AcDbEntity
  8
0
  6
CONTINUOUS
 62
          15
100
AcDbText
 10
91.816521326297
 20
10.528324484825
 30
0.0
 40
1.299999952316
  1
PLANT
 41
1.153846196169
  7
GOTHICI
100
AcDbText
  0
TEXT
  5
3B7
100
AcDbEntity
  8
0
  6
CONTINUOUS
 62
          15
100
AcDbText
 10
91.816521326297
 20
8.708324551582
 30
0.0
 40
1.299999952316
  1
FAULT
 41
1.153846196169
  7
GOTHICI
100
AcDbText
  0
TEXT
  5
3B8
100
AcDbEntity
  8
0
  6
CONTINUOUS
 62
          15
100
AcDbText
 10
10.431121434447
 20
7.419975066185
 30
0.0
 40
1.700000047684
  1
MEDICAL AIR 4 BAR
 41
0.999999971951
  7
GOTHICI
100
AcDbText
  0
TEXT
  5
3B9
100
AcDbEntity
  8
0
  6
CONTINUOUS
 62
          15
100
AcDbText
 10
60.838676129928
 20
7.350557242864
 30
0.0
 40
1.700000047684
  1
MEDICAL AIR 7 BAR
 41
0.999999971951
  7
GOTHICI
100
AcDbText
  0
TEXT
  5
3BA
100
AcDbEntity
  8
0
  6
CONTINUOUS
 62
          15
100
AcDbText
 10
225.431974391856
 20
18.804231035702
 30
0.0
 40
1.0
  1
2 CORE
 41
1.400000035763
  7
GOTHICI
100
AcDbText
  0
TEXT
  5
3BB
100
AcDbEntity
  8
0
  6
CONTINUOUS
 62
          15
100
AcDbText
 10
210.659805748195
 20
2.503607702255
 30
0.0
 40
1.5
  1
MEDICAL AIR 7 BAR
 41
1.066666682561
  7
GOTHICI
100
AcDbText
  0
LINE
  5
3BC
100
AcDbEntity
  8
0
  6
CONTINUOUS
 62
          15
100
AcDbLine
 10
221.446468036595
 20
22.385573501455
 30
0.0
 11
221.446468036595
 21
18.764165878296
 31
0.0
  0
TEXT
  5
3BD
100
AcDbEntity
  8
0
  6
CONTINUOUS
 62
          15
100
AcDbText
 10
233.399827679202
 20
15.486486226806
 30
0.0
 40
0.600000023842
  1
ESM
 41
1.1
  7
TXT
100
AcDbText
  0
TEXT
  5
3BE
100
AcDbEntity
  8
0
  6
CONTINUOUS
 62
          15
100
AcDbText
 10
195.972668512943
 20
18.804231035702
 30
0.0
 40
1.0
  1
2 CORE
 41
1.400000035763
  7
GOTHICI
100
AcDbText
  0
TEXT
  5
3BF
100
AcDbEntity
  8
0
  6
CONTINUOUS
 62
          15
100
AcDbText
 10
181.200499869282
 20
2.503607702255
 30
0.0
 40
1.5
  1
MEDICAL AIR 4 BAR
 41
1.066666682561
  7
GOTHICI
100
AcDbText
  0
LINE
  5
3C0
100
AcDbEntity
  8
0
  6
CONTINUOUS
 62
          15
100
AcDbLine
 10
191.987162157682
 20
25.04565268706
 30
0.0
 11
191.987162157682
 21
18.764165878296
 31
0.0
  0
TEXT
  5
3C1
100
AcDbEntity
  8
0
  6
CONTINUOUS
 62
          15
100
AcDbText
 10
183.680648988009
 20
22.416502309493
 30
0.0
 40
1.0
  1
5 CORE
 41
1.400000035763
  7
GOTHICI
100
AcDbText
  0
TEXT
  5
3C2
100
AcDbEntity
  8
0
  6
CONTINUOUS
 62
          15
100
AcDbText
 10
203.940521800289
 20
15.486486226806
 30
0.0
 40
0.600000023842
  1
ESM
 41
1.1
  7
TXT
100
AcDbText
  0
LINE
  5
3C3
100
AcDbEntity
  8
0
  6
CONTINUOUS
 62
          15
100
AcDbLine
 10
177.288101452239
 20
46.762606617461
 30
0.0
 11
177.288101452239
 21
2.884916909168
 31
0.0
  0
LINE
  5
3C4
100
AcDbEntity
  8
0
  6
CONTINUOUS
 62
          15
100
AcDbLine
 10
243.897824539298
 20
22.385573501455
 30
0.0
 11
221.446468036595
 21
22.385573501455
 31
0.0
  0
LINE
  5
3C5
100
AcDbEntity
  8
0
  6
CONTINUOUS
 62
          15
100
AcDbLine
 10
245.918869018555
 20
22.385573501455
 30
0.0
 11
252.944259643555
 21
22.385573501455
 31
0.0
  0
TEXT
  5
3C6
100
AcDbEntity
  8
0
  6
CONTINUOUS
 62
          15
100
AcDbText
 10
244.157333374023
 20
20.07575981574
 30
0.0
 40
1.0
  1
4 CORE
 41
1.400000035763
  7
GOTHICI
100
AcDbText
  0
TEXT
  5
3C7
100
AcDbEntity
  8
0
  6
CONTINUOUS
 62
          15
100
AcDbText
 10
213.139954866922
 20
19.460858769932
 30
0.0
 40
1.0
  1
5 CORE
 41
1.400000035763
  7
GOTHICI
100
AcDbText
  0
LINE
  5
3C8
100
AcDbEntity
  8
0
  6
CONTINUOUS
 62
          15
100
AcDbLine
 10
243.897824539298
 20
30.43602180481
 30
0.0
 11
243.897824539298
 21
22.385573501455
 31
0.0
  0
LINE
  5
3C9
100
AcDbEntity
  8
0
  6
CONTINUOUS
 62
          15
100
AcDbLine
 10
241.899608410554
 20
30.43602180481
 30
0.0
 11
241.899608410554
 21
25.04565268706
 31
0.0
  0
LINE
  5
3CA
100
AcDbEntity
  8
0
  6
CONTINUOUS
 62
          15
100
AcDbLine
 10
241.899608410554
 20
25.04565268706
 30
0.0
 11
191.987162157682
 21
25.04565268706
 31
0.0
  0
TEXT
  5
3CB
100
AcDbEntity
  8
0
  6
CONTINUOUS
 62
          15
100
AcDbText
 10
242.689034077249
 20
51.462084186774
 30
0.0
 40
1.200000047684
  1
TO OTHER SDX-15
 41
1.166666625275
  7
GOTHICI
100
AcDbText
  0
TEXT
  5
3CC
100
AcDbEntity
  8
0
  6
CONTINUOUS
 62
          15
100
AcDbText
 10
240.39778870671
 20
49.224836719733
 30
0.0
 40
1.200000047684
  1
ALARMS AND EQUIPMENT
 41
1.166666625275
  7
GOTHICI
100
AcDbText
  0
TEXT
  5
3CD
100
AcDbEntity
  8
0
  6
CONTINUOUS
 62
          15
100
AcDbText
 10
244.690355079838
 20
47.081671131354
 30
0.0
 40
1.200000047684
  1
AS REQUIRED
 41
1.166666625275
  7
GOTHICI
100
AcDbText
  0
TEXT
  5
3CE
100
AcDbEntity
  8
0
  6
CONTINUOUS
 62
          15
100
AcDbText
 10
179.627604427153
 20
94.632556152344
 30
0.0
 40
1.5
  1
ALARMS AND EQUIPMENT
 41
1.066666682561
  7
GOTHICI
100
AcDbText
  0
TEXT
  5
3CF
100
AcDbEntity
  8
0
  6
CONTINUOUS
 62
          15
100
AcDbText
 10
186.965146375796
 20
91.984042044713
 30
0.0
 40
1.5
  1
AS REQUIRED
 41
1.066666682561
  7
GOTHICI
100
AcDbText
  0
ENDSEC
  0
SECTION
  2
OBJECTS
  0
DICTIONARY
  5
19
100
AcDbDictionary
  3
ACAD_GROUP
350
1A
  3
ACAD_MLINESTYLE
350
1B
  0
DICTIONARY
  5
1A
102
{ACAD_REACTORS
330
19
102
}
100
AcDbDictionary
  0
DICTIONARY
  5
1B
102
{ACAD_REACTORS
330
19
102
}
100
AcDbDictionary
  3
STANDARD
350
1C
  0
MLINESTYLE
  5
1C
102
{ACAD_REACTORS
330
1B
102
}
100
AcDbMlineStyle
  2
STANDARD
 70
           0
  3

 62
           0
 51
90.0
 52
90.0
 71
           2
 49
0.5
 62
         256
  6
BYLAYER
 49
-0.5
 62
         256
  6
BYLAYER
  0
ENDSEC
  0
EOF
