  0
SECTION
  2
HEADER
  9
$ACADVER
  1
AC1012
  9
$DWGCODEPAGE
  3
dos850
  9
$INSBASE
 10
0.0
 20
0.0
 30
0.0
  9
$EXTMIN
 10
12.5
 20
2.899247407913
 30
0.0
  9
$EXTMAX
 10
263.517706783637
 20
185.5
 30
0.0
  9
$LIMMIN
 10
12.5
 20
2.899247407913
  9
$LIMMAX
 10
263.517706783637
 20
185.5
  9
$ORTHOMODE
 70
           0
  9
$REGENMODE
 70
           1
  9
$FILLMODE
 70
           1
  9
$QTEXTMODE
 70
           0
  9
$MIRRTEXT
 70
           1
  9
$DRAGMODE
 70
           2
  9
$LTSCALE
 40
5.0
  9
$OSMODE
 70
           0
  9
$ATTMODE
 70
           1
  9
$TEXTSIZE
 40
0.2
  9
$TRACEWID
 40
0.05
  9
$TEXTSTYLE
  7
TXT
  9
$CLAYER
  8
0
  9
$CELTYPE
  6
CONTINUOUS
  9
$CECOLOR
 62
         256
  9
$CELTSCALE
 40
1.0
  9
$DELOBJ
 70
           1
  9
$DISPSILH
 70
           0
  9
$DIMSCALE
 40
1.0
  9
$DIMASZ
 40
3.5
  9
$DIMEXO
 40
0.0625
  9
$DIMDLI
 40
0.38
  9
$DIMRND
 40
0.0
  9
$DIMDLE
 40
0.0
  9
$DIMEXE
 40
0.18
  9
$DIMTP
 40
0.0
  9
$DIMTM
 40
0.0
  9
$DIMTXT
 40
3.5
  9
$DIMCEN
 40
0.09
  9
$DIMTSZ
 40
0.0
  9
$DIMTOL
 70
           0
  9
$DIMLIM
 70
           0
  9
$DIMTIH
 70
           1
  9
$DIMTOH
 70
           1
  9
$DIMSE1
 70
           0
  9
$DIMSE2
 70
           0
  9
$DIMTAD
 70
           0
  9
$DIMZIN
 70
           0
  9
$DIMBLK
  1

  9
$DIMASO
 70
           1
  9
$DIMSHO
 70
           1
  9
$DIMPOST
  1

  9
$DIMAPOST
  1

  9
$DIMALT
 70
           0
  9
$DIMALTD
 70
           2
  9
$DIMALTF
 40
25.4
  9
$DIMLFAC
 40
1.0
  9
$DIMTOFL
 70
           0
  9
$DIMTVP
 40
0.0
  9
$DIMTIX
 70
           0
  9
$DIMSOXD
 70
           0
  9
$DIMSAH
 70
           0
  9
$DIMBLK1
  1

  9
$DIMBLK2
  1

  9
$DIMSTYLE
  2
STANDARD
  9
$DIMCLRD
 70
           0
  9
$DIMCLRE
 70
           0
  9
$DIMCLRT
 70
           0
  9
$DIMTFAC
 40
1.0
  9
$DIMGAP
 40
0.09
  9
$DIMJUST
 70
           0
  9
$DIMSD1
 70
           0
  9
$DIMSD2
 70
           0
  9
$DIMTOLJ
 70
           1
  9
$DIMTZIN
 70
           0
  9
$DIMALTZ
 70
           0
  9
$DIMALTTZ
 70
           0
  9
$DIMFIT
 70
           3
  9
$DIMUPT
 70
           0
  9
$DIMUNIT
 70
           2
  9
$DIMDEC
 70
           4
  9
$DIMTDEC
 70
           4
  9
$DIMALTU
 70
           2
  9
$DIMALTTD
 70
           2
  9
$DIMTXSTY
  7
TXT
  9
$DIMAUNIT
 70
           0
  9
$LUNITS
 70
           2
  9
$LUPREC
 70
           2
  9
$SKETCHINC
 40
0.1
  9
$FILLETRAD
 40
0.0
  9
$AUNITS
 70
           0
  9
$AUPREC
 70
           2
  9
$MENU
  1
acad
  9
$ELEVATION
 40
0.0
  9
$PELEVATION
 40
0.0
  9
$THICKNESS
 40
0.0
  9
$LIMCHECK
 70
           0
  9
$BLIPMODE
 70
           1
  9
$CHAMFERA
 40
0.0
  9
$CHAMFERB
 40
0.0
  9
$CHAMFERC
 40
0.0
  9
$CHAMFERD
 40
0.0
  9
$SKPOLY
 70
           0
  9
$TDCREATE
 40
0.000000000
  9
$TDUPDATE
 40
0.000000000
  9
$TDINDWG
 40
0.0000000000
  9
$TDUSRTIMER
 40
0.0000000000
  9
$USRTIMER
 70
           1
  9
$ANGBASE
 50
0.0
  9
$ANGDIR
 70
           0
  9
$PDMODE
 70
           2
  9
$PDSIZE
 40
0.5
  9
$PLINEWID
 40
0.0
  9
$COORDS
 70
           0
  9
$SPLFRAME
 70
           0
  9
$SPLINETYPE
 70
           6
  9
$SPLINESEGS
 70
           8
  9
$ATTDIA
 70
           0
  9
$ATTREQ
 70
           1
  9
$HANDLING
 70
           1
  9
$HANDSEED
  5
353
  9
$SURFTAB1
 70
           6
  9
$SURFTAB2
 70
           6
  9
$SURFTYPE
 70
           6
  9
$SURFU
 70
           6
  9
$SURFV
 70
           6
  9
$UCSNAME
  2

  9
$UCSORG
 10
0.0
 20
0.0
 30
0.0
  9
$UCSXDIR
 10
1.0
 20
0.0
 30
0.0
  9
$UCSYDIR
 10
0.0
 20
1.0
 30
0.0
  9
$PUCSNAME
  2

  9
$PUCSORG
 10
0.0
 20
0.0
 30
0.0
  9
$PUCSXDIR
 10
1.0
 20
0.0
 30
0.0
  9
$PUCSYDIR
 10
0.0
 20
1.0
 30
0.0
  9
$USERI1
 70
           0
  9
$USERI2
 70
           0
  9
$USERI3
 70
           0
  9
$USERI4
 70
           0
  9
$USERI5
 70
           0
  9
$USERR1
 40
0.0
  9
$USERR2
 40
0.0
  9
$USERR3
 40
0.0
  9
$USERR4
 40
0.0
  9
$USERR5
 40
0.0
  9
$WORLDVIEW
 70
           1
  9
$SHADEDGE
 70
           3
  9
$SHADEDIF
 70
          70
  9
$TILEMODE
 70
           1
  9
$MAXACTVP
 70
          16
  9
$PINSBASE
 10
0.0
 20
0.0
 30
0.0
  9
$PLIMCHECK
 70
           0
  9
$PEXTMIN
 10
1.000000000000E+20
 20
1.000000000000E+20
 30
1.000000000000E+20
  9
$PEXTMAX
 10
-1.000000000000E+20
 20
-1.000000000000E+20
 30
-1.000000000000E+20
  9
$PLIMMIN
 10
0.0
 20
0.0
  9
$PLIMMAX
 10
12.0
 20
9.0
  9
$UNITMODE
 70
           0
  9
$VISRETAIN
 70
           0
  9
$PLINEGEN
 70
           1
  9
$PSLTSCALE
 70
           0
  9
$TREEDEPTH
 70
        3020
  9
$PICKSTYLE
 70
           1
  9
$CMLSTYLE
  2
STANDARD
  9
$CMLJUST
 70
           0
  9
$CMLSCALE
 40
1.0
  9
$SAVEIMAGES
 70
           0
  0
ENDSEC
  0
SECTION
  2
CLASSES
  0
CLASS
  1
LWPOLYLINE
  2
AcDbPolyline
  3
"AutoCAD"
 90
        0
280
           0
281
           1
  0
CLASS
  1
IMAGE
  2
AcDbRasterImage
  3
ISM
 90
      127
280
           0
281
           1
  0
CLASS
  1
OLE2FRAME
  2
AcDbOle2Frame
  3
""
 90
        0
280
           0
281
           1
  0
CLASS
  1
HATCH
  2
AcDbHatch
  3
"ACAD_SEDONA"
 90
        0
280
           0
281
           1
  0
CLASS
  1
DICTIONARYVAR
  2
AcDbDictionaryVar
  3
"AutoCAD"
 90
        0
280
           0
281
           0
  0
CLASS
  1
RASTERVARIABLES
  2
AcDbRasterVariables
  3
ISM
 90
        0
280
           0
281
           0
  0
CLASS
  1
IMAGEDEF
  2
AcDbRasterImageDef
  3
ISM
 90
        0
280
           0
281
           0
  0
CLASS
  1
IMAGEDEF_REACTOR
  2
AcDbRasterImageDefReactor
  3
ISM
 90
        1
280
           0
281
           0
  0
CLASS
  1
IDBUFFER
  2
AcDbIdBuffer
  3
"Acad"
 90
        0
280
           0
281
           0
  0
CLASS
  1
SPATIAL_FILTER
  2
AcDbSpatialFilter
  3
"Acad"
 90
        0
280
           0
281
           0
  0
CLASS
  1
XRECORD
  2
AcDbXrecord
  3
"<Built In>"
 90
        0
280
           0
281
           0
  0
ENDSEC
  0
SECTION
  2
TABLES
  0
TABLE
  2
VPORT
  5
7
100
AcDbSymbolTable
 70
           1
  0
VPORT
  5
15
100
AcDbSymbolTableRecord
100
AcDbViewportTableRecord
  2
*ACTIVE
 70
           0
 10
0.0
 20
0.0
 11
1.0
 21
1.0
 12
6.591288
 22
4.579184
 13
0.0
 23
0.0
 14
1.0
 24
1.0
 15
0.0
 25
0.0
 16
0.0
 26
0.0
 36
1.0
 17
0.0
 27
0.0
 37
0.0
 40
9.158369
 41
0.688564
 42
50.0
 43
0.0
 44
0.0
 50
0.0
 51
0.0
 71
           0
 72
         100
 73
           1
 74
           1
 75
           0
 76
           0
 77
           0
 78
           0
  0
ENDTAB
  0
TABLE
  2
LTYPE
  5
4
100
AcDbSymbolTable
 70
           3
  0
LTYPE
  5
11
100
AcDbSymbolTableRecord
100
AcDbLinetypeTableRecord
  2
BYBLOCK
 70
           0
  3

 72
          65
 73
           0
 40
0.0
  0
LTYPE
  5
12
100
AcDbSymbolTableRecord
100
AcDbLinetypeTableRecord
  2
BYLAYER
 70
           0
  3

 72
          65
 73
           0
 40
0.0
  0
LTYPE
  5
13
100
AcDbSymbolTableRecord
100
AcDbLinetypeTableRecord
  2
CONTINUOUS
 70
           0
  3
Solid line
 72
          65
 73
           0
 40
0.0
  0
ENDTAB
  0
TABLE
  2
LAYER
  5
2
100
AcDbSymbolTable
 70
           1
  0
LAYER
  5
14
100
AcDbSymbolTableRecord
100
AcDbLayerTableRecord
  2
0
 70
           0
 62
           7
  6
CONTINUOUS
  0
ENDTAB
  0
TABLE
  2
STYLE
  5
3
100
AcDbSymbolTable
 70
           5
  0
STYLE
  5
17
100
AcDbSymbolTableRecord
100
AcDbTextStyleTableRecord
  2
TXT
 70
           0
 40
3.5
 41
1.0
 50
0.0
 71
           0
 42
3.5
  3
TXT
  4

  0
STYLE
  5
1D
100
AcDbSymbolTableRecord
100
AcDbTextStyleTableRecord
  2
ROMANT
 70
           0
 40
3.5
 41
1.0
 50
0.0
 71
           0
 42
3.5
  3
ROMANT
  4

  0
STYLE
  5
1E
100
AcDbSymbolTableRecord
100
AcDbTextStyleTableRecord
  2
GOTHICG
 70
           0
 40
3.5
 41
1.0
 50
0.0
 71
           0
 42
3.5
  3
GOTHICG
  4

  0
STYLE
  5
1F
100
AcDbSymbolTableRecord
100
AcDbTextStyleTableRecord
  2
GOTHICI
 70
           0
 40
3.5
 41
1.0
 50
0.0
 71
           0
 42
3.5
  3
GOTHICI
  4

  0
STYLE
  5
20
100
AcDbSymbolTableRecord
100
AcDbTextStyleTableRecord
  2
ROMAND
 70
           0
 40
3.5
 41
1.0
 50
0.0
 71
           0
 42
3.5
  3
ROMAND
  4

  0
ENDTAB
  0
TABLE
  2
VIEW
  5
5
100
AcDbSymbolTable
 70
           0
  0
ENDTAB
  0
TABLE
  2
UCS
  5
6
100
AcDbSymbolTable
 70
           0
  0
ENDTAB
  0
TABLE
  2
APPID
  5
8
100
AcDbSymbolTable
 70
           2
  0
APPID
  5
16
100
AcDbSymbolTableRecord
100
AcDbRegAppTableRecord
  2
ACAD
 70
           0
  0
APPID
  5
21
100
AcDbSymbolTableRecord
100
AcDbRegAppTableRecord
  2
MegaCADPntStyle
 70
           0
  0
ENDTAB
  0
TABLE
  2
DIMSTYLE
  5
9
100
AcDbSymbolTable
 70
           1
  0
DIMSTYLE
105
18
100
AcDbSymbolTableRecord
100
AcDbDimStyleTableRecord
  2
STANDARD
 70
           0
  3

  4

  5

  6

  7

 40
1.0
 41
0.18
 42
0.0625
 43
0.38
 44
0.18
 45
0.0
 46
0.0
 47
0.0
 48
0.0
140
0.18
141
0.09
142
0.0
143
25.4
144
1.0
145
0.0
146
1.0
147
0.09
 71
           0
 72
           0
 73
           1
 74
           1
 75
           0
 76
           0
 77
           0
 78
           0
170
           0
171
           2
172
           0
173
           0
174
           0
175
           0
176
           0
177
           0
178
           0
270
           2
271
           4
272
           4
273
           2
274
           2
340
17
275
           0
280
           0
281
           0
282
           0
283
           1
284
           0
285
           0
286
           0
287
           0
288
           0
  0
ENDTAB
  0
TABLE
  2
BLOCK_RECORD
  5
1
100
AcDbSymbolTable
 70
           9
  0
BLOCK_RECORD
  5
A
100
AcDbSymbolTableRecord
100
AcDbBlockTableRecord
  2
*MODEL_SPACE
  0
BLOCK_RECORD
  5
B
100
AcDbSymbolTableRecord
100
AcDbBlockTableRecord
  2
*PAPER_SPACE
  0
BLOCK_RECORD
  5
22
102
{ACAD_XDICTIONARY
360
1
102
}
100
AcDbSymbolTableRecord
100
AcDbBlockTableRecord
  2
ELIPPSE
  0
BLOCK_RECORD
  5
23
102
{ACAD_XDICTIONARY
360
1
102
}
100
AcDbSymbolTableRecord
100
AcDbBlockTableRecord
  2
RTX_1
  0
BLOCK_RECORD
  5
24
102
{ACAD_XDICTIONARY
360
1
102
}
100
AcDbSymbolTableRecord
100
AcDbBlockTableRecord
  2
SDX_2
  0
BLOCK_RECORD
  5
25
102
{ACAD_XDICTIONARY
360
1
102
}
100
AcDbSymbolTableRecord
100
AcDbBlockTableRecord
  2
SDXPSA_3
  0
BLOCK_RECORD
  5
26
102
{ACAD_XDICTIONARY
360
1
102
}
100
AcDbSymbolTableRecord
100
AcDbBlockTableRecord
  2
SUPPLY_4
  0
BLOCK_RECORD
  5
27
102
{ACAD_XDICTIONARY
360
1
102
}
100
AcDbSymbolTableRecord
100
AcDbBlockTableRecord
  2
TERMINAL_5
  0
BLOCK_RECORD
  5
28
102
{ACAD_XDICTIONARY
360
1
102
}
100
AcDbSymbolTableRecord
100
AcDbBlockTableRecord
  2
TERMINAL_6
  0
BLOCK_RECORD
  5
29
102
{ACAD_XDICTIONARY
360
1
102
}
100
AcDbSymbolTableRecord
100
AcDbBlockTableRecord
  2
TB4C_7
  0
BLOCK_RECORD
  5
2A
102
{ACAD_XDICTIONARY
360
1
102
}
100
AcDbSymbolTableRecord
100
AcDbBlockTableRecord
  2
CABLEREQ_8
  0
ENDTAB
  0
ENDSEC
  0
SECTION
  2
BLOCKS
  0
BLOCK
  5
D
100
AcDbEntity
  8
0
100
AcDbBlockBegin
  2
*MODEL_SPACE
 70
           0
 10
0.0
 20
0.0
 30
0.0
  3
*MODEL_SPACE
  1

  0
ENDBLK
  5
E
100
AcDbEntity
  8
0
100
AcDbBlockEnd
  0
BLOCK
  5
F
100
AcDbEntity
 67
           1
  8
0
100
AcDbBlockBegin
  2
*PAPER_SPACE
 70
           0
 10
0.0
 20
0.0
 30
0.0
  3
*PAPER_SPACE
  1

  0
ENDBLK
  5
10
100
AcDbEntity
 67
           1
  8
0
100
AcDbBlockEnd
  0
BLOCK
  5
21D
100
AcDbEntity
  8
0
100
AcDbBlockBegin
  2
ELIPPSE
 70
          64
 10
0.0
 20
0.0
 30
0.0
  3
ELIPPSE
  1

  0
CIRCLE
  5
21E
100
AcDbEntity
  8
0
  6
BYBLOCK
 62
           0
100
AcDbCircle
 10
0.0
 20
0.0
 30
0.0
 40
1.0
  0
ENDBLK
  5
21F
100
AcDbEntity
  8
0
  6
BYBLOCK
 62
           0
100
AcDbBlockEnd
  0
BLOCK
  5
220
100
AcDbEntity
  8
0
100
AcDbBlockBegin
  2
RTX_1
 70
          64
 10
0.0
 20
0.0
 30
0.0
  3
RTX_1
  1

  0
LINE
  5
221
100
AcDbEntity
  8
0
  6
CONTINUOUS
 62
          15
100
AcDbLine
 10
9.149360656738
 20
1.309364318848
 30
0.0
 11
9.149360656738
 21
11.869361877441
 31
0.0
  0
LINE
  5
222
100
AcDbEntity
  8
0
  6
CONTINUOUS
 62
          15
100
AcDbLine
 10
8.489364624023
 20
12.529365539551
 30
0.0
 11
-6.690637588501
 21
12.529365539551
 31
0.0
  0
ELLIPSE
  5
223
100
AcDbEntity
  8
0
  6
CONTINUOUS
 62
          15
100
AcDbEllipse
 10
-6.690637588501
 20
11.869361877441
 30
0.0
 11
0.0
 21
0.6600000262260437
 31
0.0
210
0.0
220
0.0
230
1.0
 40
1.0
 41
0.0000000437113898
 42
0.7853981693598904
  0
ELLIPSE
  5
224
100
AcDbEntity
  8
0
  6
CONTINUOUS
 62
          15
100
AcDbEllipse
 10
8.489364624023
 20
1.309364318848
 30
0.0
 11
0.0
 21
0.6600000262260437
 31
0.0
210
0.0
220
0.0
230
1.0
 40
1.0
 41
-2.3561948100712655
 42
-1.5707963267948966
  0
ELLIPSE
  5
225
100
AcDbEntity
  8
0
  6
CONTINUOUS
 62
          15
100
AcDbEllipse
 10
8.489364624023
 20
11.869361877441
 30
0.0
 11
0.0
 21
0.6600000262260437
 31
0.0
210
0.0
220
0.0
230
1.0
 40
1.0
 41
-1.5707963267948966
 42
0.0000000437113925
  0
LINE
  5
226
100
AcDbEntity
  8
0
  6
CONTINUOUS
 62
          15
100
AcDbLine
 10
-7.274000167847
 20
0.06600189209
 30
0.0
 11
7.90599822998
 21
0.06600189209
 31
0.0
  0
LINE
  5
227
100
AcDbEntity
  8
0
  6
CONTINUOUS
 62
          15
100
AcDbLine
 10
8.56600189209
 20
0.725997924805
 30
0.0
 11
8.56600189209
 21
11.286003112793
 31
0.0
  0
LINE
  5
228
100
AcDbEntity
  8
0
  6
CONTINUOUS
 62
          15
100
AcDbLine
 10
7.90599822998
 20
11.945999145508
 30
0.0
 11
-7.274000167847
 21
11.945999145508
 31
0.0
  0
LINE
  5
229
100
AcDbEntity
  8
0
  6
CONTINUOUS
 62
          15
100
AcDbLine
 10
-7.934000015259
 20
11.286003112793
 30
0.0
 11
-7.934000015259
 21
0.725997924805
 31
0.0
  0
ELLIPSE
  5
22A
100
AcDbEntity
  8
0
  6
CONTINUOUS
 62
          15
100
AcDbEllipse
 10
-7.274000167847
 20
11.286003112793
 30
0.0
 11
0.0
 21
0.6600000262260437
 31
0.0
210
0.0
220
0.0
230
1.0
 40
1.0
 41
0.0000000437113898
 42
-4.712388829388896
  0
ELLIPSE
  5
22B
100
AcDbEntity
  8
0
  6
CONTINUOUS
 62
          15
100
AcDbEllipse
 10
-7.274000167847
 20
0.725997924805
 30
0.0
 11
0.0
 21
0.6600000262260437
 31
0.0
210
0.0
220
0.0
230
1.0
 40
1.0
 41
-4.712388829388896
 42
-3.1415926973011832
  0
ELLIPSE
  5
22C
100
AcDbEntity
  8
0
  6
CONTINUOUS
 62
          15
100
AcDbEllipse
 10
7.90599822998
 20
0.725997924805
 30
0.0
 11
0.0
 21
0.6600000262260437
 31
0.0
210
0.0
220
0.0
230
1.0
 40
1.0
 41
-3.1415926973011858
 42
-1.5707963267948966
  0
ELLIPSE
  5
22D
100
AcDbEntity
  8
0
  6
CONTINUOUS
 62
          15
100
AcDbEllipse
 10
7.90599822998
 20
11.286003112793
 30
0.0
 11
0.0
 21
0.6600000262260437
 31
0.0
210
0.0
220
0.0
230
1.0
 40
1.0
 41
-1.5707963267948966
 42
0.0000000437113925
  0
LINE
  5
22E
100
AcDbEntity
  8
0
  6
CONTINUOUS
 62
          15
100
AcDbLine
 10
10.899452209473
 20
3.059455871582
 30
0.0
 11
10.899452209473
 21
13.619453430176
 31
0.0
  0
LINE
  5
22F
100
AcDbEntity
  8
0
  6
CONTINUOUS
 62
          15
100
AcDbLine
 10
10.239452362061
 20
14.279449462891
 30
0.0
 11
-4.940547943115
 21
14.279449462891
 31
0.0
  0
ELLIPSE
  5
230
100
AcDbEntity
  8
0
  6
CONTINUOUS
 62
          15
100
AcDbEllipse
 10
-4.940547943115
 20
13.619453430176
 30
0.0
 11
0.0
 21
0.6600000262260437
 31
0.0
210
0.0
220
0.0
230
1.0
 40
1.0
 41
0.0000000437113898
 42
0.7853981693598904
  0
ELLIPSE
  5
231
100
AcDbEntity
  8
0
  6
CONTINUOUS
 62
          15
100
AcDbEllipse
 10
10.239452362061
 20
3.059455871582
 30
0.0
 11
0.0
 21
0.6600000262260437
 31
0.0
210
0.0
220
0.0
230
1.0
 40
1.0
 41
-2.3561948100712655
 42
-1.5707963267948966
  0
ELLIPSE
  5
232
100
AcDbEntity
  8
0
  6
CONTINUOUS
 62
          15
100
AcDbEllipse
 10
10.239452362061
 20
13.619453430176
 30
0.0
 11
0.0
 21
0.6600000262260437
 31
0.0
210
0.0
220
0.0
230
1.0
 40
1.0
 41
-1.5707963267948966
 42
0.0000000437113925
  0
LINE
  5
233
100
AcDbEntity
  8
0
  6
CONTINUOUS
 62
          15
100
AcDbLine
 10
-7.740690231323
 20
11.752685546875
 30
0.0
 11
-5.407238006592
 21
14.086143493652
 31
0.0
  0
LINE
  5
234
100
AcDbEntity
  8
0
  6
CONTINUOUS
 62
          15
100
AcDbLine
 10
10.706142425537
 20
2.592758178711
 30
0.0
 11
8.372688293457
 21
0.259307861328
 31
0.0
  0
ENDBLK
  5
235
100
AcDbEntity
  8
0
  6
BYBLOCK
 62
           0
100
AcDbBlockEnd
  0
BLOCK
  5
236
100
AcDbEntity
  8
0
100
AcDbBlockBegin
  2
SDX_2
 70
          64
 10
0.0
 20
0.0
 30
0.0
  3
SDX_2
  1

  0
LINE
  5
237
100
AcDbEntity
  8
0
  6
CONTINUOUS
 62
          15
100
AcDbLine
 10
-16.25
 20
0.0
 30
0.0
 11
16.25
 21
0.0
 31
0.0
  0
LINE
  5
238
100
AcDbEntity
  8
0
  6
CONTINUOUS
 62
          15
100
AcDbLine
 10
16.25
 20
0.0
 30
0.0
 11
16.25
 21
25.0
 31
0.0
  0
LINE
  5
239
100
AcDbEntity
  8
0
  6
CONTINUOUS
 62
          15
100
AcDbLine
 10
16.25
 20
25.0
 30
0.0
 11
-16.25
 21
25.0
 31
0.0
  0
LINE
  5
23A
100
AcDbEntity
  8
0
  6
CONTINUOUS
 62
          15
100
AcDbLine
 10
-16.25
 20
25.0
 30
0.0
 11
-16.25
 21
0.0
 31
0.0
  0
LINE
  5
23B
100
AcDbEntity
  8
0
  6
CONTINUOUS
 62
          15
100
AcDbLine
 10
-15.649993896484
 20
0.59999593099
 30
0.0
 11
15.649993896484
 21
0.59999593099
 31
0.0
  0
LINE
  5
23C
100
AcDbEntity
  8
0
  6
CONTINUOUS
 62
          15
100
AcDbLine
 10
15.649993896484
 20
0.59999593099
 30
0.0
 11
15.649993896484
 21
24.40000406901
 31
0.0
  0
LINE
  5
23D
100
AcDbEntity
  8
0
  6
CONTINUOUS
 62
          15
100
AcDbLine
 10
15.649993896484
 20
24.40000406901
 30
0.0
 11
-15.649993896484
 21
24.40000406901
 31
0.0
  0
LINE
  5
23E
100
AcDbEntity
  8
0
  6
CONTINUOUS
 62
          15
100
AcDbLine
 10
-15.649993896484
 20
24.40000406901
 30
0.0
 11
-15.649993896484
 21
0.59999593099
 31
0.0
  0
LINE
  5
23F
100
AcDbEntity
  8
0
  6
CONTINUOUS
 62
          15
100
AcDbLine
 10
-13.75
 20
2.5
 30
0.0
 11
13.75
 21
2.5
 31
0.0
  0
LINE
  5
240
100
AcDbEntity
  8
0
  6
CONTINUOUS
 62
          15
100
AcDbLine
 10
13.75
 20
2.5
 30
0.0
 11
13.75
 21
22.5
 31
0.0
  0
LINE
  5
241
100
AcDbEntity
  8
0
  6
CONTINUOUS
 62
          15
100
AcDbLine
 10
13.75
 20
22.5
 30
0.0
 11
-13.75
 21
22.5
 31
0.0
  0
LINE
  5
242
100
AcDbEntity
  8
0
  6
CONTINUOUS
 62
          15
100
AcDbLine
 10
-13.75
 20
22.5
 30
0.0
 11
-13.75
 21
2.5
 31
0.0
  0
LINE
  5
243
100
AcDbEntity
  8
0
  6
CONTINUOUS
 62
          15
100
AcDbLine
 10
-11.949991861979
 20
11.59999593099
 30
0.0
 11
-9.449991861979
 21
11.59999593099
 31
0.0
  0
LINE
  5
244
100
AcDbEntity
  8
0
  6
CONTINUOUS
 62
          15
100
AcDbLine
 10
-9.449991861979
 20
11.59999593099
 30
0.0
 11
-9.449991861979
 21
19.40000406901
 31
0.0
  0
LINE
  5
245
100
AcDbEntity
  8
0
  6
CONTINUOUS
 62
          15
100
AcDbLine
 10
-9.449991861979
 20
19.40000406901
 30
0.0
 11
-11.949991861979
 21
19.40000406901
 31
0.0
  0
LINE
  5
246
100
AcDbEntity
  8
0
  6
CONTINUOUS
 62
          15
100
AcDbLine
 10
-11.949991861979
 20
19.40000406901
 30
0.0
 11
-11.949991861979
 21
11.59999593099
 31
0.0
  0
LINE
  5
247
100
AcDbEntity
  8
0
  6
CONTINUOUS
 62
          15
100
AcDbLine
 10
-3.25
 20
11.59999593099
 30
0.0
 11
-0.75
 21
11.59999593099
 31
0.0
  0
LINE
  5
248
100
AcDbEntity
  8
0
  6
CONTINUOUS
 62
          15
100
AcDbLine
 10
-0.75
 20
11.59999593099
 30
0.0
 11
-0.75
 21
19.40000406901
 31
0.0
  0
LINE
  5
249
100
AcDbEntity
  8
0
  6
CONTINUOUS
 62
          15
100
AcDbLine
 10
-0.75
 20
19.40000406901
 30
0.0
 11
-3.25
 21
19.40000406901
 31
0.0
  0
LINE
  5
24A
100
AcDbEntity
  8
0
  6
CONTINUOUS
 62
          15
100
AcDbLine
 10
-3.25
 20
19.40000406901
 30
0.0
 11
-3.25
 21
11.59999593099
 31
0.0
  0
LINE
  5
24B
100
AcDbEntity
  8
0
  6
CONTINUOUS
 62
          15
100
AcDbLine
 10
0.949991861979
 20
11.59999593099
 30
0.0
 11
3.449991861979
 21
11.59999593099
 31
0.0
  0
LINE
  5
24C
100
AcDbEntity
  8
0
  6
CONTINUOUS
 62
          15
100
AcDbLine
 10
3.449991861979
 20
11.59999593099
 30
0.0
 11
3.449991861979
 21
19.40000406901
 31
0.0
  0
LINE
  5
24D
100
AcDbEntity
  8
0
  6
CONTINUOUS
 62
          15
100
AcDbLine
 10
3.449991861979
 20
19.40000406901
 30
0.0
 11
0.949991861979
 21
19.40000406901
 31
0.0
  0
LINE
  5
24E
100
AcDbEntity
  8
0
  6
CONTINUOUS
 62
          15
100
AcDbLine
 10
0.949991861979
 20
19.40000406901
 30
0.0
 11
0.949991861979
 21
11.59999593099
 31
0.0
  0
LINE
  5
24F
100
AcDbEntity
  8
0
  6
CONTINUOUS
 62
          15
100
AcDbLine
 10
5.149993896484
 20
11.59999593099
 30
0.0
 11
7.649993896484
 21
11.59999593099
 31
0.0
  0
LINE
  5
250
100
AcDbEntity
  8
0
  6
CONTINUOUS
 62
          15
100
AcDbLine
 10
7.649993896484
 20
11.59999593099
 30
0.0
 11
7.649993896484
 21
19.40000406901
 31
0.0
  0
LINE
  5
251
100
AcDbEntity
  8
0
  6
CONTINUOUS
 62
          15
100
AcDbLine
 10
7.649993896484
 20
19.40000406901
 30
0.0
 11
5.149993896484
 21
19.40000406901
 31
0.0
  0
LINE
  5
252
100
AcDbEntity
  8
0
  6
CONTINUOUS
 62
          15
100
AcDbLine
 10
5.149993896484
 20
19.40000406901
 30
0.0
 11
5.149993896484
 21
11.59999593099
 31
0.0
  0
LINE
  5
253
100
AcDbEntity
  8
0
  6
CONTINUOUS
 62
          15
100
AcDbLine
 10
9.350006103516
 20
11.59999593099
 30
0.0
 11
11.850006103516
 21
11.59999593099
 31
0.0
  0
LINE
  5
254
100
AcDbEntity
  8
0
  6
CONTINUOUS
 62
          15
100
AcDbLine
 10
11.850006103516
 20
11.59999593099
 30
0.0
 11
11.850006103516
 21
19.40000406901
 31
0.0
  0
LINE
  5
255
100
AcDbEntity
  8
0
  6
CONTINUOUS
 62
          15
100
AcDbLine
 10
11.850006103516
 20
19.40000406901
 30
0.0
 11
9.350006103516
 21
19.40000406901
 31
0.0
  0
LINE
  5
256
100
AcDbEntity
  8
0
  6
CONTINUOUS
 62
          15
100
AcDbLine
 10
9.350006103516
 20
19.40000406901
 30
0.0
 11
9.350006103516
 21
11.59999593099
 31
0.0
  0
LINE
  5
257
100
AcDbEntity
  8
0
  6
CONTINUOUS
 62
          15
100
AcDbLine
 10
-7.75
 20
11.59999593099
 30
0.0
 11
-5.25
 21
11.59999593099
 31
0.0
  0
LINE
  5
258
100
AcDbEntity
  8
0
  6
CONTINUOUS
 62
          15
100
AcDbLine
 10
-5.25
 20
11.59999593099
 30
0.0
 11
-5.25
 21
19.40000406901
 31
0.0
  0
LINE
  5
259
100
AcDbEntity
  8
0
  6
CONTINUOUS
 62
          15
100
AcDbLine
 10
-5.25
 20
19.40000406901
 30
0.0
 11
-7.75
 21
19.40000406901
 31
0.0
  0
LINE
  5
25A
100
AcDbEntity
  8
0
  6
CONTINUOUS
 62
          15
100
AcDbLine
 10
-7.75
 20
19.40000406901
 30
0.0
 11
-7.75
 21
11.59999593099
 31
0.0
  0
CIRCLE
  5
25B
100
AcDbEntity
  8
0
  6
CONTINUOUS
 62
          15
100
AcDbCircle
 10
-9.75
 20
7.0
 30
0.0
 40
0.5
  0
CIRCLE
  5
25C
100
AcDbEntity
  8
0
  6
CONTINUOUS
 62
          15
100
AcDbCircle
 10
-9.75
 20
9.5
 30
0.0
 40
0.5
  0
LINE
  5
25D
100
AcDbEntity
  8
0
  6
CONTINUOUS
 62
          15
100
AcDbLine
 10
-12.25
 20
11.0
 30
0.0
 11
12.25
 21
11.0
 31
0.0
  0
LINE
  5
25E
100
AcDbEntity
  8
0
  6
CONTINUOUS
 62
          15
100
AcDbLine
 10
-13.25
 20
10.5
 30
0.0
 11
13.116027832031
 21
10.5
 31
0.0
  0
LINE
  5
25F
100
AcDbEntity
  8
0
  6
CONTINUOUS
 62
          15
100
AcDbLine
 10
-3.25
 20
10.0
 30
0.0
 11
13.25
 21
10.0
 31
0.0
  0
LINE
  5
260
100
AcDbEntity
  8
0
  6
CONTINUOUS
 62
          15
100
AcDbLine
 10
-2.75
 20
9.5
 30
0.0
 11
13.25
 21
9.5
 31
0.0
  0
LINE
  5
261
100
AcDbEntity
  8
0
  6
CONTINUOUS
 62
          15
100
AcDbLine
 10
-2.25
 20
9.0
 30
0.0
 11
13.25
 21
9.0
 31
0.0
  0
LINE
  5
262
100
AcDbEntity
  8
0
  6
CONTINUOUS
 62
          15
100
AcDbLine
 10
-1.75
 20
8.5
 30
0.0
 11
13.25
 21
8.5
 31
0.0
  0
LINE
  5
263
100
AcDbEntity
  8
0
  6
CONTINUOUS
 62
          15
100
AcDbLine
 10
-12.25
 20
4.0
 30
0.0
 11
12.25
 21
4.0
 31
0.0
  0
LINE
  5
264
100
AcDbEntity
  8
0
  6
CONTINUOUS
 62
          15
100
AcDbLine
 10
-13.116027832031
 20
4.5
 30
0.0
 11
13.116027832031
 21
4.5
 31
0.0
  0
LINE
  5
265
100
AcDbEntity
  8
0
  6
CONTINUOUS
 62
          15
100
AcDbLine
 10
-13.25
 20
5.0
 30
0.0
 11
-3.134613037109
 21
5.0
 31
0.0
  0
LINE
  5
266
100
AcDbEntity
  8
0
  6
CONTINUOUS
 62
          15
100
AcDbLine
 10
-13.25
 20
5.5
 30
0.0
 11
-3.596160888672
 21
5.5
 31
0.0
  0
LINE
  5
267
100
AcDbEntity
  8
0
  6
CONTINUOUS
 62
          15
100
AcDbLine
 10
-13.25
 20
6.0
 30
0.0
 11
-4.057698567708
 21
6.0
 31
0.0
  0
TEXT
  5
268
100
AcDbEntity
  8
0
  6
CONTINUOUS
 62
          15
100
AcDbText
 10
5.75
 20
5.999996731679
 30
0.0
 40
1.399999936422
  1
SDX-15
 41
0.764285750981
  7
ROMAND
100
AcDbText
  0
LINE
  5
269
100
AcDbEntity
  8
0
  6
CONTINUOUS
 62
          15
100
AcDbLine
 10
-12.25
 20
22.0
 30
0.0
 11
12.25
 21
22.0
 31
0.0
  0
LINE
  5
26A
100
AcDbEntity
  8
0
  6
CONTINUOUS
 62
          15
100
AcDbLine
 10
-13.116027832031
 20
21.5
 30
0.0
 11
13.116027832031
 21
21.5
 31
0.0
  0
LINE
  5
26B
100
AcDbEntity
  8
0
  6
CONTINUOUS
 62
          15
100
AcDbLine
 10
-13.25
 20
20.0
 30
0.0
 11
13.25
 21
20.0
 31
0.0
  0
TEXT
  5
26C
100
AcDbEntity
  8
0
  6
CONTINUOUS
 62
          15
100
AcDbText
 10
-9.153828938802
 20
20.264792899291
 30
0.0
 40
1.0
  1
MEDICAL GAS ALARM
 41
1.070000002782
  7
ROMAND
100
AcDbText
  0
LINE
  5
26D
100
AcDbEntity
  8
0
  6
CONTINUOUS
 62
          15
100
AcDbLine
 10
-110.0
 20
-27.333333333333
 30
0.0
 11
-110.0
 21
-14.756103515625
 31
0.0
  0
LINE
  5
26E
100
AcDbEntity
  8
0
  6
CONTINUOUS
 62
          15
100
AcDbLine
 10
-50.623270670573
 20
-14.540405273438
 30
0.0
 11
-50.623270670573
 21
-27.333333333333
 31
0.0
  0
LINE
  5
26F
100
AcDbEntity
  8
0
  6
CONTINUOUS
 62
          15
100
AcDbLine
 10
-50.623270670573
 20
-27.333333333333
 30
0.0
 11
-110.0
 21
-27.333333333333
 31
0.0
  0
LINE
  5
270
100
AcDbEntity
  8
0
  6
CONTINUOUS
 62
          15
100
AcDbLine
 10
-57.295003255208
 20
-13.050069173177
 30
0.0
 11
-59.835001627604
 21
-13.050069173177
 31
0.0
  0
LINE
  5
271
100
AcDbEntity
  8
0
  6
CONTINUOUS
 62
          15
100
AcDbLine
 10
-59.835001627604
 20
-12.286702473958
 30
0.0
 11
-59.835001627604
 21
-13.050069173177
 31
0.0
  0
CIRCLE
  5
272
100
AcDbEntity
  8
0
  6
CONTINUOUS
 62
          15
100
AcDbCircle
 10
-71.36659749349
 20
-11.034993489583
 30
0.0
 40
0.110066672166
  0
LINE
  5
273
100
AcDbEntity
  8
0
  6
CONTINUOUS
 62
          15
100
AcDbLine
 10
-107.460001627604
 20
-17.486612955729
 30
0.0
 11
-107.460001627604
 21
-17.274943033854
 31
0.0
  0
LINE
  5
274
100
AcDbEntity
  8
0
  6
CONTINUOUS
 62
          15
100
AcDbLine
 10
-107.460001627604
 20
-14.421671549479
 30
0.0
 11
-107.460001627604
 21
-14.633341471354
 31
0.0
  0
LINE
  5
275
100
AcDbEntity
  8
0
  6
CONTINUOUS
 62
          15
100
AcDbLine
 10
-107.036666870117
 20
-17.274943033854
 30
0.0
 11
-107.036666870117
 21
-14.624877929688
 31
0.0
  0
LINE
  5
276
100
AcDbEntity
  8
0
  6
CONTINUOUS
 62
          15
100
AcDbLine
 10
-107.036666870117
 20
-17.274943033854
 30
0.0
 11
-107.883331298828
 21
-17.274943033854
 31
0.0
  0
LINE
  5
277
100
AcDbEntity
  8
0
  6
CONTINUOUS
 62
          15
100
AcDbLine
 10
-107.883331298828
 20
-14.624877929688
 30
0.0
 11
-107.883331298828
 21
-17.274943033854
 31
0.0
  0
LINE
  5
278
100
AcDbEntity
  8
0
  6
CONTINUOUS
 62
          15
100
AcDbLine
 10
-107.883331298828
 20
-14.624877929688
 30
0.0
 11
-107.036666870117
 21
-14.624877929688
 31
0.0
  0
LINE
  5
279
100
AcDbEntity
  8
0
  6
CONTINUOUS
 62
          15
100
AcDbLine
 10
-105.766667683919
 20
-17.486612955729
 30
0.0
 11
-105.766667683919
 21
-17.274943033854
 31
0.0
  0
LINE
  5
27A
100
AcDbEntity
  8
0
  6
CONTINUOUS
 62
          15
100
AcDbLine
 10
-105.766667683919
 20
-14.421671549479
 30
0.0
 11
-105.766667683919
 21
-14.633341471354
 31
0.0
  0
LINE
  5
27B
100
AcDbEntity
  8
0
  6
CONTINUOUS
 62
          15
100
AcDbLine
 10
-105.343332926432
 20
-17.274943033854
 30
0.0
 11
-105.343332926432
 21
-14.624877929688
 31
0.0
  0
LINE
  5
27C
100
AcDbEntity
  8
0
  6
CONTINUOUS
 62
          15
100
AcDbLine
 10
-105.343332926432
 20
-17.274943033854
 30
0.0
 11
-106.189997355143
 21
-17.274943033854
 31
0.0
  0
LINE
  5
27D
100
AcDbEntity
  8
0
  6
CONTINUOUS
 62
          15
100
AcDbLine
 10
-106.189997355143
 20
-14.624877929688
 30
0.0
 11
-106.189997355143
 21
-17.274943033854
 31
0.0
  0
LINE
  5
27E
100
AcDbEntity
  8
0
  6
CONTINUOUS
 62
          15
100
AcDbLine
 10
-106.189997355143
 20
-14.624877929688
 30
0.0
 11
-105.343332926432
 21
-14.624877929688
 31
0.0
  0
LINE
  5
27F
100
AcDbEntity
  8
0
  6
CONTINUOUS
 62
          15
100
AcDbLine
 10
-104.073333740234
 20
-17.486612955729
 30
0.0
 11
-104.073333740234
 21
-17.274943033854
 31
0.0
  0
LINE
  5
280
100
AcDbEntity
  8
0
  6
CONTINUOUS
 62
          15
100
AcDbLine
 10
-104.073333740234
 20
-14.421671549479
 30
0.0
 11
-104.073333740234
 21
-14.633341471354
 31
0.0
  0
LINE
  5
281
100
AcDbEntity
  8
0
  6
CONTINUOUS
 62
          15
100
AcDbLine
 10
-103.649998982747
 20
-17.274943033854
 30
0.0
 11
-103.649998982747
 21
-14.624877929688
 31
0.0
  0
LINE
  5
282
100
AcDbEntity
  8
0
  6
CONTINUOUS
 62
          15
100
AcDbLine
 10
-103.649998982747
 20
-17.274943033854
 30
0.0
 11
-104.496663411458
 21
-17.274943033854
 31
0.0
  0
LINE
  5
283
100
AcDbEntity
  8
0
  6
CONTINUOUS
 62
          15
100
AcDbLine
 10
-104.496663411458
 20
-14.624877929688
 30
0.0
 11
-104.496663411458
 21
-17.274943033854
 31
0.0
  0
LINE
  5
284
100
AcDbEntity
  8
0
  6
CONTINUOUS
 62
          15
100
AcDbLine
 10
-104.496663411458
 20
-14.624877929688
 30
0.0
 11
-103.649998982747
 21
-14.624877929688
 31
0.0
  0
LINE
  5
285
100
AcDbEntity
  8
0
  6
CONTINUOUS
 62
          15
100
AcDbLine
 10
-102.379999796549
 20
-17.486612955729
 30
0.0
 11
-102.379999796549
 21
-17.274943033854
 31
0.0
  0
LINE
  5
286
100
AcDbEntity
  8
0
  6
CONTINUOUS
 62
          15
100
AcDbLine
 10
-102.379999796549
 20
-14.421671549479
 30
0.0
 11
-102.379999796549
 21
-14.633341471354
 31
0.0
  0
LINE
  5
287
100
AcDbEntity
  8
0
  6
CONTINUOUS
 62
          15
100
AcDbLine
 10
-101.956665039063
 20
-17.274943033854
 30
0.0
 11
-101.956665039063
 21
-14.624877929688
 31
0.0
  0
LINE
  5
288
100
AcDbEntity
  8
0
  6
CONTINUOUS
 62
          15
100
AcDbLine
 10
-101.956665039063
 20
-17.274943033854
 30
0.0
 11
-102.803334554036
 21
-17.274943033854
 31
0.0
  0
LINE
  5
289
100
AcDbEntity
  8
0
  6
CONTINUOUS
 62
          15
100
AcDbLine
 10
-102.803334554036
 20
-14.624877929688
 30
0.0
 11
-102.803334554036
 21
-17.274943033854
 31
0.0
  0
LINE
  5
28A
100
AcDbEntity
  8
0
  6
CONTINUOUS
 62
          15
100
AcDbLine
 10
-102.803334554036
 20
-14.624877929688
 30
0.0
 11
-101.956665039063
 21
-14.624877929688
 31
0.0
  0
LINE
  5
28B
100
AcDbEntity
  8
0
  6
CONTINUOUS
 62
          15
100
AcDbLine
 10
-98.993336995443
 20
-17.486612955729
 30
0.0
 11
-98.993336995443
 21
-17.274943033854
 31
0.0
  0
LINE
  5
28C
100
AcDbEntity
  8
0
  6
CONTINUOUS
 62
          15
100
AcDbLine
 10
-98.993336995443
 20
-14.421671549479
 30
0.0
 11
-98.993336995443
 21
-14.633341471354
 31
0.0
  0
LINE
  5
28D
100
AcDbEntity
  8
0
  6
CONTINUOUS
 62
          15
100
AcDbLine
 10
-98.569997151693
 20
-17.274943033854
 30
0.0
 11
-98.569997151693
 21
-14.624877929688
 31
0.0
  0
LINE
  5
28E
100
AcDbEntity
  8
0
  6
CONTINUOUS
 62
          15
100
AcDbLine
 10
-98.569997151693
 20
-17.274943033854
 30
0.0
 11
-99.416666666667
 21
-17.274943033854
 31
0.0
  0
LINE
  5
28F
100
AcDbEntity
  8
0
  6
CONTINUOUS
 62
          15
100
AcDbLine
 10
-99.416666666667
 20
-14.624877929688
 30
0.0
 11
-99.416666666667
 21
-17.274943033854
 31
0.0
  0
LINE
  5
290
100
AcDbEntity
  8
0
  6
CONTINUOUS
 62
          15
100
AcDbLine
 10
-99.416666666667
 20
-14.624877929688
 30
0.0
 11
-98.569997151693
 21
-14.624877929688
 31
0.0
  0
LINE
  5
291
100
AcDbEntity
  8
0
  6
CONTINUOUS
 62
          15
100
AcDbLine
 10
-97.299997965495
 20
-17.486612955729
 30
0.0
 11
-97.299997965495
 21
-17.274943033854
 31
0.0
  0
LINE
  5
292
100
AcDbEntity
  8
0
  6
CONTINUOUS
 62
          15
100
AcDbLine
 10
-97.299997965495
 20
-14.421671549479
 30
0.0
 11
-97.299997965495
 21
-14.633341471354
 31
0.0
  0
LINE
  5
293
100
AcDbEntity
  8
0
  6
CONTINUOUS
 62
          15
100
AcDbLine
 10
-96.876668294271
 20
-17.274943033854
 30
0.0
 11
-96.876668294271
 21
-14.624877929688
 31
0.0
  0
LINE
  5
294
100
AcDbEntity
  8
0
  6
CONTINUOUS
 62
          15
100
AcDbLine
 10
-96.876668294271
 20
-17.274943033854
 30
0.0
 11
-97.723332722982
 21
-17.274943033854
 31
0.0
  0
LINE
  5
295
100
AcDbEntity
  8
0
  6
CONTINUOUS
 62
          15
100
AcDbLine
 10
-97.723332722982
 20
-14.624877929688
 30
0.0
 11
-97.723332722982
 21
-17.274943033854
 31
0.0
  0
LINE
  5
296
100
AcDbEntity
  8
0
  6
CONTINUOUS
 62
          15
100
AcDbLine
 10
-97.723332722982
 20
-14.624877929688
 30
0.0
 11
-96.876668294271
 21
-14.624877929688
 31
0.0
  0
LINE
  5
297
100
AcDbEntity
  8
0
  6
CONTINUOUS
 62
          15
100
AcDbLine
 10
-95.606669108073
 20
-17.486612955729
 30
0.0
 11
-95.606669108073
 21
-17.274943033854
 31
0.0
  0
LINE
  5
298
100
AcDbEntity
  8
0
  6
CONTINUOUS
 62
          15
100
AcDbLine
 10
-95.606669108073
 20
-14.421671549479
 30
0.0
 11
-95.606669108073
 21
-14.633341471354
 31
0.0
  0
LINE
  5
299
100
AcDbEntity
  8
0
  6
CONTINUOUS
 62
          15
100
AcDbLine
 10
-95.183329264323
 20
-17.274943033854
 30
0.0
 11
-95.183329264323
 21
-14.624877929688
 31
0.0
  0
LINE
  5
29A
100
AcDbEntity
  8
0
  6
CONTINUOUS
 62
          15
100
AcDbLine
 10
-95.183329264323
 20
-17.274943033854
 30
0.0
 11
-96.029998779297
 21
-17.274943033854
 31
0.0
  0
LINE
  5
29B
100
AcDbEntity
  8
0
  6
CONTINUOUS
 62
          15
100
AcDbLine
 10
-96.029998779297
 20
-14.624877929688
 30
0.0
 11
-96.029998779297
 21
-17.274943033854
 31
0.0
  0
LINE
  5
29C
100
AcDbEntity
  8
0
  6
CONTINUOUS
 62
          15
100
AcDbLine
 10
-96.029998779297
 20
-14.624877929688
 30
0.0
 11
-95.183329264323
 21
-14.624877929688
 31
0.0
  0
LINE
  5
29D
100
AcDbEntity
  8
0
  6
CONTINUOUS
 62
          15
100
AcDbLine
 10
-93.913330078125
 20
-17.486612955729
 30
0.0
 11
-93.913330078125
 21
-17.274943033854
 31
0.0
  0
LINE
  5
29E
100
AcDbEntity
  8
0
  6
CONTINUOUS
 62
          15
100
AcDbLine
 10
-93.913330078125
 20
-14.421671549479
 30
0.0
 11
-93.913330078125
 21
-14.633341471354
 31
0.0
  0
LINE
  5
29F
100
AcDbEntity
  8
0
  6
CONTINUOUS
 62
          15
100
AcDbLine
 10
-93.490000406901
 20
-17.274943033854
 30
0.0
 11
-93.490000406901
 21
-14.624877929688
 31
0.0
  0
LINE
  5
2A0
100
AcDbEntity
  8
0
  6
CONTINUOUS
 62
          15
100
AcDbLine
 10
-93.490000406901
 20
-17.274943033854
 30
0.0
 11
-94.336664835612
 21
-17.274943033854
 31
0.0
  0
LINE
  5
2A1
100
AcDbEntity
  8
0
  6
CONTINUOUS
 62
          15
100
AcDbLine
 10
-94.336664835612
 20
-14.624877929688
 30
0.0
 11
-94.336664835612
 21
-17.274943033854
 31
0.0
  0
LINE
  5
2A2
100
AcDbEntity
  8
0
  6
CONTINUOUS
 62
          15
100
AcDbLine
 10
-94.336664835612
 20
-14.624877929688
 30
0.0
 11
-93.490000406901
 21
-14.624877929688
 31
0.0
  0
LINE
  5
2A3
100
AcDbEntity
  8
0
  6
CONTINUOUS
 62
          15
100
AcDbLine
 10
-87.986663818359
 20
-17.486612955729
 30
0.0
 11
-87.986663818359
 21
-17.274943033854
 31
0.0
  0
LINE
  5
2A4
100
AcDbEntity
  8
0
  6
CONTINUOUS
 62
          15
100
AcDbLine
 10
-87.986663818359
 20
-14.421671549479
 30
0.0
 11
-87.986663818359
 21
-14.633341471354
 31
0.0
  0
LINE
  5
2A5
100
AcDbEntity
  8
0
  6
CONTINUOUS
 62
          15
100
AcDbLine
 10
-87.563334147135
 20
-17.274943033854
 30
0.0
 11
-87.563334147135
 21
-14.624877929688
 31
0.0
  0
LINE
  5
2A6
100
AcDbEntity
  8
0
  6
CONTINUOUS
 62
          15
100
AcDbLine
 10
-87.563334147135
 20
-17.274943033854
 30
0.0
 11
-88.409998575846
 21
-17.274943033854
 31
0.0
  0
LINE
  5
2A7
100
AcDbEntity
  8
0
  6
CONTINUOUS
 62
          15
100
AcDbLine
 10
-88.409998575846
 20
-14.624877929688
 30
0.0
 11
-88.409998575846
 21
-17.274943033854
 31
0.0
  0
LINE
  5
2A8
100
AcDbEntity
  8
0
  6
CONTINUOUS
 62
          15
100
AcDbLine
 10
-88.409998575846
 20
-14.624877929688
 30
0.0
 11
-87.563334147135
 21
-14.624877929688
 31
0.0
  0
LINE
  5
2A9
100
AcDbEntity
  8
0
  6
CONTINUOUS
 62
          15
100
AcDbLine
 10
-86.293334960938
 20
-17.486612955729
 30
0.0
 11
-86.293334960938
 21
-17.274943033854
 31
0.0
  0
LINE
  5
2AA
100
AcDbEntity
  8
0
  6
CONTINUOUS
 62
          15
100
AcDbLine
 10
-86.293334960938
 20
-14.421671549479
 30
0.0
 11
-86.293334960938
 21
-14.633341471354
 31
0.0
  0
LINE
  5
2AB
100
AcDbEntity
  8
0
  6
CONTINUOUS
 62
          15
100
AcDbLine
 10
-85.870000203451
 20
-17.274943033854
 30
0.0
 11
-85.870000203451
 21
-14.624877929688
 31
0.0
  0
LINE
  5
2AC
100
AcDbEntity
  8
0
  6
CONTINUOUS
 62
          15
100
AcDbLine
 10
-85.870000203451
 20
-17.274943033854
 30
0.0
 11
-86.716664632161
 21
-17.274943033854
 31
0.0
  0
LINE
  5
2AD
100
AcDbEntity
  8
0
  6
CONTINUOUS
 62
          15
100
AcDbLine
 10
-86.716664632161
 20
-14.624877929688
 30
0.0
 11
-86.716664632161
 21
-17.274943033854
 31
0.0
  0
LINE
  5
2AE
100
AcDbEntity
  8
0
  6
CONTINUOUS
 62
          15
100
AcDbLine
 10
-86.716664632161
 20
-14.624877929688
 30
0.0
 11
-85.870000203451
 21
-14.624877929688
 31
0.0
  0
LINE
  5
2AF
100
AcDbEntity
  8
0
  6
CONTINUOUS
 62
          15
100
AcDbLine
 10
-84.59999593099
 20
-17.486612955729
 30
0.0
 11
-84.59999593099
 21
-17.274943033854
 31
0.0
  0
LINE
  5
2B0
100
AcDbEntity
  8
0
  6
CONTINUOUS
 62
          15
100
AcDbLine
 10
-84.59999593099
 20
-14.421671549479
 30
0.0
 11
-84.59999593099
 21
-14.633341471354
 31
0.0
  0
LINE
  5
2B1
100
AcDbEntity
  8
0
  6
CONTINUOUS
 62
          15
100
AcDbLine
 10
-84.176666259766
 20
-17.274943033854
 30
0.0
 11
-84.176666259766
 21
-14.624877929688
 31
0.0
  0
LINE
  5
2B2
100
AcDbEntity
  8
0
  6
CONTINUOUS
 62
          15
100
AcDbLine
 10
-84.176666259766
 20
-17.274943033854
 30
0.0
 11
-85.02333577474
 21
-17.274943033854
 31
0.0
  0
LINE
  5
2B3
100
AcDbEntity
  8
0
  6
CONTINUOUS
 62
          15
100
AcDbLine
 10
-85.02333577474
 20
-14.624877929688
 30
0.0
 11
-85.02333577474
 21
-17.274943033854
 31
0.0
  0
LINE
  5
2B4
100
AcDbEntity
  8
0
  6
CONTINUOUS
 62
          15
100
AcDbLine
 10
-85.02333577474
 20
-14.624877929688
 30
0.0
 11
-84.176666259766
 21
-14.624877929688
 31
0.0
  0
LINE
  5
2B5
100
AcDbEntity
  8
0
  6
CONTINUOUS
 62
          15
100
AcDbLine
 10
-82.906667073568
 20
-17.486612955729
 30
0.0
 11
-82.906667073568
 21
-17.274943033854
 31
0.0
  0
LINE
  5
2B6
100
AcDbEntity
  8
0
  6
CONTINUOUS
 62
          15
100
AcDbLine
 10
-82.906667073568
 20
-14.421671549479
 30
0.0
 11
-82.906667073568
 21
-14.633341471354
 31
0.0
  0
LINE
  5
2B7
100
AcDbEntity
  8
0
  6
CONTINUOUS
 62
          15
100
AcDbLine
 10
-82.483332316081
 20
-17.274943033854
 30
0.0
 11
-82.483332316081
 21
-14.624877929688
 31
0.0
  0
LINE
  5
2B8
100
AcDbEntity
  8
0
  6
CONTINUOUS
 62
          15
100
AcDbLine
 10
-82.483332316081
 20
-17.274943033854
 30
0.0
 11
-83.329996744792
 21
-17.274943033854
 31
0.0
  0
LINE
  5
2B9
100
AcDbEntity
  8
0
  6
CONTINUOUS
 62
          15
100
AcDbLine
 10
-83.329996744792
 20
-14.624877929688
 30
0.0
 11
-83.329996744792
 21
-17.274943033854
 31
0.0
  0
LINE
  5
2BA
100
AcDbEntity
  8
0
  6
CONTINUOUS
 62
          15
100
AcDbLine
 10
-83.329996744792
 20
-14.624877929688
 30
0.0
 11
-82.483332316081
 21
-14.624877929688
 31
0.0
  0
LINE
  5
2BB
100
AcDbEntity
  8
0
  6
CONTINUOUS
 62
          15
100
AcDbLine
 10
-79.519999186198
 20
-17.486612955729
 30
0.0
 11
-79.519999186198
 21
-17.274943033854
 31
0.0
  0
LINE
  5
2BC
100
AcDbEntity
  8
0
  6
CONTINUOUS
 62
          15
100
AcDbLine
 10
-79.519999186198
 20
-14.421671549479
 30
0.0
 11
-79.519999186198
 21
-14.633341471354
 31
0.0
  0
LINE
  5
2BD
100
AcDbEntity
  8
0
  6
CONTINUOUS
 62
          15
100
AcDbLine
 10
-79.096669514974
 20
-17.274943033854
 30
0.0
 11
-79.096669514974
 21
-14.624877929688
 31
0.0
  0
LINE
  5
2BE
100
AcDbEntity
  8
0
  6
CONTINUOUS
 62
          15
100
AcDbLine
 10
-79.096669514974
 20
-17.274943033854
 30
0.0
 11
-79.943339029948
 21
-17.274943033854
 31
0.0
  0
LINE
  5
2BF
100
AcDbEntity
  8
0
  6
CONTINUOUS
 62
          15
100
AcDbLine
 10
-79.943339029948
 20
-14.624877929688
 30
0.0
 11
-79.943339029948
 21
-17.274943033854
 31
0.0
  0
LINE
  5
2C0
100
AcDbEntity
  8
0
  6
CONTINUOUS
 62
          15
100
AcDbLine
 10
-79.943339029948
 20
-14.624877929688
 30
0.0
 11
-79.096669514974
 21
-14.624877929688
 31
0.0
  0
LINE
  5
2C1
100
AcDbEntity
  8
0
  6
CONTINUOUS
 62
          15
100
AcDbLine
 10
-77.826670328776
 20
-17.486612955729
 30
0.0
 11
-77.826670328776
 21
-17.274943033854
 31
0.0
  0
LINE
  5
2C2
100
AcDbEntity
  8
0
  6
CONTINUOUS
 62
          15
100
AcDbLine
 10
-77.826670328776
 20
-14.421671549479
 30
0.0
 11
-77.826670328776
 21
-14.633341471354
 31
0.0
  0
LINE
  5
2C3
100
AcDbEntity
  8
0
  6
CONTINUOUS
 62
          15
100
AcDbLine
 10
-77.403330485026
 20
-17.274943033854
 30
0.0
 11
-77.403330485026
 21
-14.624877929688
 31
0.0
  0
LINE
  5
2C4
100
AcDbEntity
  8
0
  6
CONTINUOUS
 62
          15
100
AcDbLine
 10
-77.403330485026
 20
-17.274943033854
 30
0.0
 11
-78.25
 21
-17.274943033854
 31
0.0
  0
LINE
  5
2C5
100
AcDbEntity
  8
0
  6
CONTINUOUS
 62
          15
100
AcDbLine
 10
-78.25
 20
-14.624877929688
 30
0.0
 11
-78.25
 21
-17.274943033854
 31
0.0
  0
LINE
  5
2C6
100
AcDbEntity
  8
0
  6
CONTINUOUS
 62
          15
100
AcDbLine
 10
-78.25
 20
-14.624877929688
 30
0.0
 11
-77.403330485026
 21
-14.624877929688
 31
0.0
  0
LINE
  5
2C7
100
AcDbEntity
  8
0
  6
CONTINUOUS
 62
          15
100
AcDbLine
 10
-76.133331298828
 20
-17.486612955729
 30
0.0
 11
-76.133331298828
 21
-17.274943033854
 31
0.0
  0
LINE
  5
2C8
100
AcDbEntity
  8
0
  6
CONTINUOUS
 62
          15
100
AcDbLine
 10
-76.133331298828
 20
-14.421671549479
 30
0.0
 11
-76.133331298828
 21
-14.633341471354
 31
0.0
  0
LINE
  5
2C9
100
AcDbEntity
  8
0
  6
CONTINUOUS
 62
          15
100
AcDbLine
 10
-75.710001627604
 20
-17.274943033854
 30
0.0
 11
-75.710001627604
 21
-14.624877929688
 31
0.0
  0
LINE
  5
2CA
100
AcDbEntity
  8
0
  6
CONTINUOUS
 62
          15
100
AcDbLine
 10
-75.710001627604
 20
-17.274943033854
 30
0.0
 11
-76.556671142578
 21
-17.274943033854
 31
0.0
  0
LINE
  5
2CB
100
AcDbEntity
  8
0
  6
CONTINUOUS
 62
          15
100
AcDbLine
 10
-76.556671142578
 20
-14.624877929688
 30
0.0
 11
-76.556671142578
 21
-17.274943033854
 31
0.0
  0
LINE
  5
2CC
100
AcDbEntity
  8
0
  6
CONTINUOUS
 62
          15
100
AcDbLine
 10
-76.556671142578
 20
-14.624877929688
 30
0.0
 11
-75.710001627604
 21
-14.624877929688
 31
0.0
  0
LINE
  5
2CD
100
AcDbEntity
  8
0
  6
CONTINUOUS
 62
          15
100
AcDbLine
 10
-74.440002441406
 20
-17.486612955729
 30
0.0
 11
-74.440002441406
 21
-17.274943033854
 31
0.0
  0
LINE
  5
2CE
100
AcDbEntity
  8
0
  6
CONTINUOUS
 62
          15
100
AcDbLine
 10
-74.440002441406
 20
-14.421671549479
 30
0.0
 11
-74.440002441406
 21
-14.633341471354
 31
0.0
  0
LINE
  5
2CF
100
AcDbEntity
  8
0
  6
CONTINUOUS
 62
          15
100
AcDbLine
 10
-74.016662597656
 20
-17.274943033854
 30
0.0
 11
-74.016662597656
 21
-14.624877929688
 31
0.0
  0
LINE
  5
2D0
100
AcDbEntity
  8
0
  6
CONTINUOUS
 62
          15
100
AcDbLine
 10
-74.016662597656
 20
-17.274943033854
 30
0.0
 11
-74.86333211263
 21
-17.274943033854
 31
0.0
  0
LINE
  5
2D1
100
AcDbEntity
  8
0
  6
CONTINUOUS
 62
          15
100
AcDbLine
 10
-74.86333211263
 20
-14.624877929688
 30
0.0
 11
-74.86333211263
 21
-17.274943033854
 31
0.0
  0
LINE
  5
2D2
100
AcDbEntity
  8
0
  6
CONTINUOUS
 62
          15
100
AcDbLine
 10
-74.86333211263
 20
-14.624877929688
 30
0.0
 11
-74.016662597656
 21
-14.624877929688
 31
0.0
  0
LINE
  5
2D3
100
AcDbEntity
  8
0
  6
CONTINUOUS
 62
          15
100
AcDbLine
 10
-53.696665445964
 20
-21.194986979167
 30
0.0
 11
-51.579996744792
 21
-21.194986979167
 31
0.0
  0
LINE
  5
2D4
100
AcDbEntity
  8
0
  6
CONTINUOUS
 62
          15
100
AcDbLine
 10
-60.791727701823
 20
-21.194986979167
 30
0.0
 11
-58.675069173177
 21
-21.194986979167
 31
0.0
  0
LINE
  5
2D5
100
AcDbEntity
  8
0
  6
CONTINUOUS
 62
          15
100
AcDbLine
 10
-60.791727701823
 20
-21.194986979167
 30
0.0
 11
-60.791727701823
 21
-12.124857584635
 31
0.0
  0
LINE
  5
2D6
100
AcDbEntity
  8
0
  6
CONTINUOUS
 62
          15
100
AcDbLine
 10
-51.579996744792
 20
-14.230041503906
 30
0.0
 11
-51.579996744792
 21
-21.194986979167
 31
0.0
  0
ARC
  5
2D7
100
AcDbEntity
  8
0
  6
CONTINUOUS
 62
          15
100
AcDbCircle
 10
-56.236663818359
 20
-21.618326822917
 30
0.0
 40
3.285066604614
100
AcDbArc
 50
224.999999658377
 51
314.99999874776
  0
LINE
  5
2D8
100
AcDbEntity
  8
0
  6
CONTINUOUS
 62
          15
100
AcDbLine
 10
-53.696665445964
 20
-21.719930013021
 30
0.0
 11
-51.046600341797
 21
-21.719930013021
 31
0.0
  0
LINE
  5
2D9
100
AcDbEntity
  8
0
  6
CONTINUOUS
 62
          15
100
AcDbLine
 10
-61.316670735677
 20
-21.719930013021
 30
0.0
 11
-58.675069173177
 21
-21.719930013021
 31
0.0
  0
LINE
  5
2DA
100
AcDbEntity
  8
0
  6
CONTINUOUS
 62
          15
100
AcDbLine
 10
-61.316670735677
 20
-21.719930013021
 30
0.0
 11
-61.316670735677
 21
-12.040506998698
 31
0.0
  0
LINE
  5
2DB
100
AcDbEntity
  8
0
  6
CONTINUOUS
 62
          15
100
AcDbLine
 10
-51.046600341797
 20
-14.400146484375
 30
0.0
 11
-51.046600341797
 21
-21.719930013021
 31
0.0
  0
ARC
  5
2DC
100
AcDbEntity
  8
0
  6
CONTINUOUS
 62
          15
100
AcDbCircle
 10
-64.178395589193
 20
-28.078409830729
 30
0.0
 40
6.984999974569
100
AcDbArc
 50
36.249999585792
 51
65.750003252616
  0
ARC
  5
2DD
100
AcDbEntity
  8
0
  6
CONTINUOUS
 62
          15
100
AcDbCircle
 10
-48.404998779297
 20
-28.078409830729
 30
0.0
 40
6.883399963379
100
AcDbArc
 50
112.499998007956
 51
142.999996010783
  0
ELLIPSE
  5
2DE
100
AcDbEntity
  8
0
  6
CONTINUOUS
 62
          15
100
AcDbEllipse
 10
-80.0
 20
-21.5
 30
0.0
 11
38.333333333333336
 21
0.0
 31
0.0
210
0.0
220
0.0
230
1.0
 40
0.282608695652
 41
0.0
 42
6.2831853071795862
  0
ENDBLK
  5
2DF
100
AcDbEntity
  8
0
  6
BYBLOCK
 62
           0
100
AcDbBlockEnd
  0
BLOCK
  5
2E0
100
AcDbEntity
  8
0
100
AcDbBlockBegin
  2
SDXPSA_3
 70
          64
 10
0.0
 20
0.0
 30
0.0
  3
SDXPSA_3
  1

  0
LINE
  5
2E1
100
AcDbEntity
  8
0
  6
CONTINUOUS
 62
          15
100
AcDbLine
 10
-11.617691040039
 20
-17.426528930664
 30
0.0
 11
0.0
 21
0.0
 31
0.0
  0
ENDBLK
  5
2E2
100
AcDbEntity
  8
0
  6
BYBLOCK
 62
           0
100
AcDbBlockEnd
  0
BLOCK
  5
2E3
100
AcDbEntity
  8
0
100
AcDbBlockBegin
  2
SUPPLY_4
 70
          64
 10
0.0
 20
0.0
 30
0.0
  3
SUPPLY_4
  1

  0
LINE
  5
2E4
100
AcDbEntity
  8
0
  6
CONTINUOUS
 62
          15
100
AcDbLine
 10
2.304016113281
 20
-7.19800567627
 30
0.0
 11
13.730758666992
 21
-7.19800567627
 31
0.0
  0
LINE
  5
2E5
100
AcDbEntity
  8
0
  6
CONTINUOUS
 62
          15
100
AcDbLine
 10
0.0
 20
-9.53736114502
 30
0.0
 11
13.730758666992
 21
-9.53736114502
 31
0.0
  0
LINE
  5
2E6
100
AcDbEntity
  8
0
  6
CONTINUOUS
 62
          15
100
AcDbLine
 10
-2.303955078125
 20
-11.87671661377
 30
0.0
 11
13.730758666992
 21
-11.87671661377
 31
0.0
  0
LINE
  5
2E7
100
AcDbEntity
  8
0
  6
CONTINUOUS
 62
          15
100
AcDbLine
 10
2.304016113281
 20
-7.19800567627
 30
0.0
 11
2.304016113281
 21
0.0
 31
0.0
  0
LINE
  5
2E8
100
AcDbEntity
  8
0
  6
CONTINUOUS
 62
          15
100
AcDbLine
 10
0.0
 20
-9.53736114502
 30
0.0
 11
0.0
 21
0.0
 31
0.0
  0
LINE
  5
2E9
100
AcDbEntity
  8
0
  6
CONTINUOUS
 62
          15
100
AcDbLine
 10
-2.303955078125
 20
-11.87671661377
 30
0.0
 11
-2.303955078125
 21
0.0
 31
0.0
  0
ENDBLK
  5
2EA
100
AcDbEntity
  8
0
  6
BYBLOCK
 62
           0
100
AcDbBlockEnd
  0
BLOCK
  5
2EB
100
AcDbEntity
  8
0
100
AcDbBlockBegin
  2
TERMINAL_5
 70
          64
 10
0.0
 20
0.0
 30
0.0
  3
TERMINAL_5
  1

  0
LINE
  5
2EC
100
AcDbEntity
  8
0
  6
CONTINUOUS
 62
          15
100
AcDbLine
 10
7.362899461002
 20
3.495969766098
 30
0.0
 11
-5.262509272816
 21
3.495969766098
 31
0.0
  0
LINE
  5
2ED
100
AcDbEntity
  8
0
  6
CONTINUOUS
 62
          15
100
AcDbLine
 10
-5.262509272816
 20
0.42415556126
 30
0.0
 11
7.362899461002
 21
0.42415556126
 31
0.0
  0
ENDBLK
  5
2EE
100
AcDbEntity
  8
0
  6
BYBLOCK
 62
           0
100
AcDbBlockEnd
  0
BLOCK
  5
2EF
100
AcDbEntity
  8
0
100
AcDbBlockBegin
  2
TERMINAL_6
 70
          64
 10
0.0
 20
0.0
 30
0.0
  3
TERMINAL_6
  1

  0
LINE
  5
2F0
100
AcDbEntity
  8
0
  6
CONTINUOUS
 62
          15
100
AcDbLine
 10
4.954212214972
 20
3.495969766098
 30
0.0
 11
-32.718963784317
 21
3.495969766098
 31
0.0
  0
ENDBLK
  5
2F1
100
AcDbEntity
  8
0
  6
BYBLOCK
 62
           0
100
AcDbBlockEnd
  0
BLOCK
  5
2F2
100
AcDbEntity
  8
0
100
AcDbBlockBegin
  2
TB4C_7
 70
          64
 10
0.0
 20
0.0
 30
0.0
  3
TB4C_7
  1

  0
LINE
  5
2F3
100
AcDbEntity
  8
0
  6
CONTINUOUS
 62
          15
100
AcDbLine
 10
-2.0
 20
-20.988212585449
 30
0.0
 11
13.25
 21
-20.988212585449
 31
0.0
  0
LINE
  5
2F4
100
AcDbEntity
  8
0
  6
CONTINUOUS
 62
          15
100
AcDbLine
 10
18.649307250977
 20
-26.111354827881
 30
0.0
 11
20.649307250977
 21
-26.111354827881
 31
0.0
  0
LINE
  5
2F5
100
AcDbEntity
  8
0
  6
CONTINUOUS
 62
          15
100
AcDbLine
 10
11.25
 20
-26.111354827881
 30
0.0
 11
13.649307250977
 21
-26.111354827881
 31
0.0
  0
LINE
  5
2F6
100
AcDbEntity
  8
0
  6
CONTINUOUS
 62
          15
100
AcDbLine
 10
18.649307250977
 20
-36.111356735229
 30
0.0
 11
20.649307250977
 21
-36.111356735229
 31
0.0
  0
LINE
  5
2F7
100
AcDbEntity
  8
0
  6
CONTINUOUS
 62
          15
100
AcDbLine
 10
11.25
 20
-36.111356735229
 30
0.0
 11
13.649307250977
 21
-36.111356735229
 31
0.0
  0
LINE
  5
2F8
100
AcDbEntity
  8
0
  6
CONTINUOUS
 62
          15
100
AcDbLine
 10
6.75
 20
-36.111356735229
 30
0.0
 11
11.25
 21
-36.111356735229
 31
0.0
  0
LINE
  5
2F9
100
AcDbEntity
  8
0
  6
CONTINUOUS
 62
          15
100
AcDbLine
 10
18.649307250977
 20
-41.111356735229
 30
0.0
 11
20.649307250977
 21
-41.111356735229
 31
0.0
  0
LINE
  5
2FA
100
AcDbEntity
  8
0
  6
CONTINUOUS
 62
          15
100
AcDbLine
 10
11.25
 20
-41.111356735229
 30
0.0
 11
13.649307250977
 21
-41.111356735229
 31
0.0
  0
LINE
  5
2FB
100
AcDbEntity
  8
0
  6
CONTINUOUS
 62
          15
100
AcDbLine
 10
4.5
 20
-41.111356735229
 30
0.0
 11
11.25
 21
-41.111356735229
 31
0.0
  0
LINE
  5
2FC
100
AcDbEntity
  8
0
  6
CONTINUOUS
 62
          15
100
AcDbLine
 10
18.649307250977
 20
-26.111354827881
 30
0.0
 11
18.649307250977
 21
-24.111352920532
 31
0.0
  0
LINE
  5
2FD
100
AcDbEntity
  8
0
  6
CONTINUOUS
 62
          15
100
AcDbLine
 10
18.649307250977
 20
-36.111356735229
 30
0.0
 11
18.649307250977
 21
-34.111356735229
 31
0.0
  0
LINE
  5
2FE
100
AcDbEntity
  8
0
  6
CONTINUOUS
 62
          15
100
AcDbLine
 10
18.649307250977
 20
-41.111356735229
 30
0.0
 11
18.649307250977
 21
-39.111356735229
 31
0.0
  0
LINE
  5
2FF
100
AcDbEntity
  8
0
  6
CONTINUOUS
 62
          15
100
AcDbLine
 10
13.649307250977
 20
-41.111356735229
 30
0.0
 11
19.149307250977
 21
-39.111356735229
 31
0.0
  0
LINE
  5
300
100
AcDbEntity
  8
0
  6
CONTINUOUS
 62
          15
100
AcDbLine
 10
13.649307250977
 20
-36.111356735229
 30
0.0
 11
19.149307250977
 21
-34.111356735229
 31
0.0
  0
LINE
  5
301
100
AcDbEntity
  8
0
  6
CONTINUOUS
 62
          15
100
AcDbLine
 10
13.649307250977
 20
-26.111354827881
 30
0.0
 11
19.149307250977
 21
-24.111352920532
 31
0.0
  0
LINE
  5
302
100
AcDbEntity
  8
0
  6
CONTINUOUS
 62
          15
100
AcDbLine
 10
2.25
 20
-46.111354827881
 30
0.0
 11
32.993923187256
 21
-46.111354827881
 31
0.0
  0
LINE
  5
303
100
AcDbEntity
  8
0
  6
CONTINUOUS
 62
          15
100
AcDbLine
 10
-2.0
 20
-20.988212585449
 30
0.0
 11
-2.0
 21
0.0
 31
0.0
  0
LINE
  5
304
100
AcDbEntity
  8
0
  6
CONTINUOUS
 62
          15
100
AcDbLine
 10
13.25
 20
-20.988212585449
 30
0.0
 11
13.25
 21
0.0
 31
0.0
  0
LINE
  5
305
100
AcDbEntity
  8
0
  6
CONTINUOUS
 62
          15
100
AcDbLine
 10
-1.0
 20
-20.988212585449
 30
0.0
 11
-1.0
 21
-13.704917907715
 31
0.0
  0
LINE
  5
306
100
AcDbEntity
  8
0
  6
CONTINUOUS
 62
          15
100
AcDbLine
 10
11.25
 20
-26.111354827881
 30
0.0
 11
11.25
 21
-20.988212585449
 31
0.0
  0
LINE
  5
307
100
AcDbEntity
  8
0
  6
CONTINUOUS
 62
          15
100
AcDbLine
 10
6.75
 20
-36.111356735229
 30
0.0
 11
6.75
 21
-20.988212585449
 31
0.0
  0
LINE
  5
308
100
AcDbEntity
  8
0
  6
CONTINUOUS
 62
          15
100
AcDbLine
 10
4.5
 20
-41.111356735229
 30
0.0
 11
4.5
 21
-20.988212585449
 31
0.0
  0
LINE
  5
309
100
AcDbEntity
  8
0
  6
CONTINUOUS
 62
          15
100
AcDbLine
 10
2.25
 20
-46.111354827881
 30
0.0
 11
2.25
 21
-20.988212585449
 31
0.0
  0
LINE
  5
30A
100
AcDbEntity
  8
0
  6
CONTINUOUS
 62
          15
100
AcDbLine
 10
12.25
 20
-20.988212585449
 30
0.0
 11
12.25
 21
-13.704917907715
 31
0.0
  0
LINE
  5
30B
100
AcDbEntity
  8
0
  6
CONTINUOUS
 62
          15
100
AcDbLine
 10
20.649307250977
 20
-26.111354827881
 30
0.0
 11
32.993923187256
 21
-26.111354827881
 31
0.0
  0
LINE
  5
30C
100
AcDbEntity
  8
0
  6
CONTINUOUS
 62
          15
100
AcDbLine
 10
20.649307250977
 20
-36.111356735229
 30
0.0
 11
32.993923187256
 21
-36.111356735229
 31
0.0
  0
LINE
  5
30D
100
AcDbEntity
  8
0
  6
CONTINUOUS
 62
          15
100
AcDbLine
 10
20.649307250977
 20
-41.111356735229
 30
0.0
 11
32.993923187256
 21
-41.111356735229
 31
0.0
  0
LINE
  5
30E
100
AcDbEntity
  8
0
  6
CONTINUOUS
 62
          15
100
AcDbLine
 10
-2.0
 20
0.0
 30
0.0
 11
13.25
 21
0.0
 31
0.0
  0
LINE
  5
30F
100
AcDbEntity
  8
0
  6
CONTINUOUS
 62
          15
100
AcDbLine
 10
-1.0
 20
-7.065864562988
 30
0.0
 11
-1.0
 21
0.0
 31
0.0
  0
LINE
  5
310
100
AcDbEntity
  8
0
  6
CONTINUOUS
 62
          15
100
AcDbLine
 10
12.25
 20
-7.065864562988
 30
0.0
 11
12.25
 21
0.0
 31
0.0
  0
LINE
  5
311
100
AcDbEntity
  8
0
  6
CONTINUOUS
 62
          15
100
AcDbLine
 10
-1.0
 20
-13.704917907715
 30
0.0
 11
12.25
 21
-13.704917907715
 31
0.0
  0
LINE
  5
312
100
AcDbEntity
  8
0
  6
CONTINUOUS
 62
          15
100
AcDbLine
 10
-1.0
 20
-16.704917907715
 30
0.0
 11
12.25
 21
-16.704917907715
 31
0.0
  0
CIRCLE
  5
313
100
AcDbEntity
  8
0
  6
CONTINUOUS
 62
          15
100
AcDbCircle
 10
0.0
 20
-15.204917907715
 30
0.0
 40
0.5
  0
CIRCLE
  5
314
100
AcDbEntity
  8
0
  6
CONTINUOUS
 62
          15
100
AcDbCircle
 10
2.25
 20
-15.204917907715
 30
0.0
 40
0.5
  0
CIRCLE
  5
315
100
AcDbEntity
  8
0
  6
CONTINUOUS
 62
          15
100
AcDbCircle
 10
4.5
 20
-15.204917907715
 30
0.0
 40
0.5
  0
CIRCLE
  5
316
100
AcDbEntity
  8
0
  6
CONTINUOUS
 62
          15
100
AcDbCircle
 10
6.75
 20
-15.204917907715
 30
0.0
 40
0.5
  0
CIRCLE
  5
317
100
AcDbEntity
  8
0
  6
CONTINUOUS
 62
          15
100
AcDbCircle
 10
9.0
 20
-15.204917907715
 30
0.0
 40
0.5
  0
CIRCLE
  5
318
100
AcDbEntity
  8
0
  6
CONTINUOUS
 62
          15
100
AcDbCircle
 10
11.25
 20
-15.204917907715
 30
0.0
 40
0.5
  0
TEXT
  5
319
100
AcDbEntity
  8
0
  6
CONTINUOUS
 62
          15
100
AcDbText
 10
4.128967285156
 20
-18.018957421184
 30
0.0
 40
0.819999992847
  1
1234
 41
2.743902462958
  7
ROMANT
100
AcDbText
  0
TEXT
  5
31A
100
AcDbEntity
  8
0
  6
CONTINUOUS
 62
          15
100
AcDbText
 10
1.992805480957
 20
-12.732000723481
 30
0.0
 40
2.0
  1
TB4
 41
1.400000035763
  7
ROMANT
100
AcDbText
  0
TEXT
  5
31B
100
AcDbEntity
  8
0
  6
CONTINUOUS
 62
          15
100
AcDbText
 10
1.268371582031
 20
-8.745931908488
 30
0.0
 40
0.819999992847
  1
TERMINATION
 41
1.024390239027
  7
ROMANT
100
AcDbText
  0
TEXT
  5
31C
100
AcDbEntity
  8
0
  6
CONTINUOUS
 62
          15
100
AcDbText
 10
3.803901672363
 20
-9.977987572551
 30
0.0
 40
0.819999992847
  1
BOARD
 41
1.024390239027
  7
ROMANT
100
AcDbText
  0
TEXT
  5
31D
100
AcDbEntity
  8
0
  6
CONTINUOUS
 62
          15
100
AcDbText
 10
0.727172851563
 20
-18.056440636516
 30
0.0
 40
0.819999992847
  1
C
 41
0.804878037811
  7
ROMANT
100
AcDbText
  0
LINE
  5
31E
100
AcDbEntity
  8
0
  6
CONTINUOUS
 62
          15
100
AcDbLine
 10
-1.0
 20
-18.417793273926
 30
0.0
 11
12.195137023926
 21
-18.417793273926
 31
0.0
  0
LINE
  5
31F
100
AcDbEntity
  8
0
  6
CONTINUOUS
 62
          15
100
AcDbLine
 10
10.208557128906
 20
-18.417793273926
 30
0.0
 11
10.208557128906
 21
-16.704917907715
 31
0.0
  0
LINE
  5
320
100
AcDbEntity
  8
0
  6
CONTINUOUS
 62
          15
100
AcDbLine
 10
7.905937194824
 20
-18.417793273926
 30
0.0
 11
7.905937194824
 21
-16.704917907715
 31
0.0
  0
LINE
  5
321
100
AcDbEntity
  8
0
  6
CONTINUOUS
 62
          15
100
AcDbLine
 10
5.693618774414
 20
-18.417793273926
 30
0.0
 11
5.693618774414
 21
-16.704917907715
 31
0.0
  0
LINE
  5
322
100
AcDbEntity
  8
0
  6
CONTINUOUS
 62
          15
100
AcDbLine
 10
3.436141967773
 20
-18.417793273926
 30
0.0
 11
3.436141967773
 21
-16.704917907715
 31
0.0
  0
LINE
  5
323
100
AcDbEntity
  8
0
  6
CONTINUOUS
 62
          15
100
AcDbLine
 10
-1.0
 20
-4.065864562988
 30
0.0
 11
12.25
 21
-4.065864562988
 31
0.0
  0
LINE
  5
324
100
AcDbEntity
  8
0
  6
CONTINUOUS
 62
          15
100
AcDbLine
 10
-1.0
 20
-7.065864562988
 30
0.0
 11
12.25
 21
-7.065864562988
 31
0.0
  0
CIRCLE
  5
325
100
AcDbEntity
  8
0
  6
CONTINUOUS
 62
          15
100
AcDbCircle
 10
0.0
 20
-5.565864562988
 30
0.0
 40
0.5
  0
CIRCLE
  5
326
100
AcDbEntity
  8
0
  6
CONTINUOUS
 62
          15
100
AcDbCircle
 10
2.25
 20
-5.565864562988
 30
0.0
 40
0.5
  0
CIRCLE
  5
327
100
AcDbEntity
  8
0
  6
CONTINUOUS
 62
          15
100
AcDbCircle
 10
4.5
 20
-5.565864562988
 30
0.0
 40
0.5
  0
CIRCLE
  5
328
100
AcDbEntity
  8
0
  6
CONTINUOUS
 62
          15
100
AcDbCircle
 10
6.75
 20
-5.565864562988
 30
0.0
 40
0.5
  0
CIRCLE
  5
329
100
AcDbEntity
  8
0
  6
CONTINUOUS
 62
          15
100
AcDbCircle
 10
9.0
 20
-5.565864562988
 30
0.0
 40
0.5
  0
CIRCLE
  5
32A
100
AcDbEntity
  8
0
  6
CONTINUOUS
 62
          15
100
AcDbCircle
 10
11.25
 20
-5.565864562988
 30
0.0
 40
0.5
  0
TEXT
  5
32B
100
AcDbEntity
  8
0
  6
CONTINUOUS
 62
          15
100
AcDbText
 10
4.133911132813
 20
-3.593847557902
 30
0.0
 40
0.819999992847
  1
1234
 41
2.743902462958
  7
ROMANT
100
AcDbText
  0
TEXT
  5
32C
100
AcDbEntity
  8
0
  6
CONTINUOUS
 62
          15
100
AcDbText
 10
0.636878967285
 20
-3.692922875285
 30
0.0
 40
0.819999992847
  1
C
 41
0.804878037811
  7
ROMANT
100
AcDbText
  0
LINE
  5
32D
100
AcDbEntity
  8
0
  6
CONTINUOUS
 62
          15
100
AcDbLine
 10
10.208557128906
 20
-4.065864562988
 30
0.0
 11
10.208557128906
 21
-2.495918273926
 31
0.0
  0
LINE
  5
32E
100
AcDbEntity
  8
0
  6
CONTINUOUS
 62
          15
100
AcDbLine
 10
7.905937194824
 20
-4.065864562988
 30
0.0
 11
7.905937194824
 21
-2.495918273926
 31
0.0
  0
LINE
  5
32F
100
AcDbEntity
  8
0
  6
CONTINUOUS
 62
          15
100
AcDbLine
 10
5.693618774414
 20
-4.065864562988
 30
0.0
 11
5.693618774414
 21
-2.495918273926
 31
0.0
  0
LINE
  5
330
100
AcDbEntity
  8
0
  6
CONTINUOUS
 62
          15
100
AcDbLine
 10
3.436141967773
 20
-4.065864562988
 30
0.0
 11
3.436141967773
 21
-2.495918273926
 31
0.0
  0
LINE
  5
331
100
AcDbEntity
  8
0
  6
CONTINUOUS
 62
          15
100
AcDbLine
 10
-1.0
 20
-2.495918273926
 30
0.0
 11
12.195137023926
 21
-2.495918273926
 31
0.0
  0
TEXT
  5
332
100
AcDbEntity
  8
0
  6
CONTINUOUS
 62
          15
100
AcDbText
 10
0.055290222168
 20
-1.969887375832
 30
0.0
 40
1.200000047684
  1
TO ALARM
 41
1.249999950329
  7
ROMANT
100
AcDbText
  0
TEXT
  5
333
100
AcDbEntity
  8
0
  6
CONTINUOUS
 62
          15
100
AcDbText
 10
-0.107269287109
 20
-20.285103440285
 30
0.0
 40
1.200000047684
  1
TO PLANT
 41
1.249999950329
  7
ROMANT
100
AcDbText
  0
LINE
  5
334
100
AcDbEntity
  8
0
  6
CONTINUOUS
 62
          15
100
AcDbLine
 10
32.993923187256
 20
-46.111354827881
 30
0.0
 11
32.993923187256
 21
-26.111354827881
 31
0.0
  0
TEXT
  5
335
100
AcDbEntity
  8
0
  6
CONTINUOUS
 62
          15
100
AcDbText
 10
26.905043661594
 20
-26.050280928612
 30
0.0
 40
1.299999952316
  1
PRESSURE FAULT
 41
1.115384692976
  7
GOTHICI
100
AcDbText
  0
TEXT
  5
336
100
AcDbEntity
  8
0
  6
CONTINUOUS
 62
          15
100
AcDbText
 10
46.505044162273
 20
-27.805280864239
 30
0.0
 40
1.299999952316
  1

 41
1.115384692976
  7
GOTHICI
100
AcDbText
  0
TEXT
  5
337
100
AcDbEntity
  8
0
  6
CONTINUOUS
 62
          15
100
AcDbText
 10
36.705043911934
 20
-29.560280799866
 30
0.0
 40
1.299999952316
  1
RESERVE
 41
1.115384692976
  7
GOTHICI
100
AcDbText
  0
TEXT
  5
338
100
AcDbEntity
  8
0
  6
CONTINUOUS
 62
          15
100
AcDbText
 10
42.305044054985
 20
-31.315280735493
 30
0.0
 40
1.299999952316
  1
LOW
 41
1.115384692976
  7
GOTHICI
100
AcDbText
  0
TEXT
  5
339
100
AcDbEntity
  8
0
  6
CONTINUOUS
 62
          15
100
AcDbText
 10
46.505044162273
 20
-33.07028067112
 30
0.0
 40
1.299999952316
  1

 41
1.115384692976
  7
GOTHICI
100
AcDbText
  0
TEXT
  5
33A
100
AcDbEntity
  8
0
  6
CONTINUOUS
 62
          15
100
AcDbText
 10
24.105043590069
 20
-34.825280606747
 30
0.0
 40
1.299999952316
  1
CHANGE CYLINDERS
 41
1.115384692976
  7
GOTHICI
100
AcDbText
  0
TEXT
  5
33B
100
AcDbEntity
  8
0
  6
CONTINUOUS
 62
          15
100
AcDbText
 10
31.105043768883
 20
-36.580280542374
 30
0.0
 40
1.299999952316
  1
IMMEDIATELY
 41
1.115384692976
  7
GOTHICI
100
AcDbText
  0
TEXT
  5
33C
100
AcDbEntity
  8
0
  6
CONTINUOUS
 62
          15
100
AcDbText
 10
46.505044162273
 20
-38.335280478001
 30
0.0
 40
1.299999952316
  1

 41
1.115384692976
  7
GOTHICI
100
AcDbText
  0
TEXT
  5
33D
100
AcDbEntity
  8
0
  6
CONTINUOUS
 62
          15
100
AcDbText
 10
38.105043947697
 20
-40.090280413628
 30
0.0
 40
1.299999952316
  1
CHANGE
 41
1.115384692976
  7
GOTHICI
100
AcDbText
  0
TEXT
  5
33E
100
AcDbEntity
  8
0
  6
CONTINUOUS
 62
          15
100
AcDbText
 10
33.905043840408
 20
-41.845280349255
 30
0.0
 40
1.299999952316
  1
CYLINDERS
 41
1.115384692976
  7
GOTHICI
100
AcDbText
  0
TEXT
  5
33F
100
AcDbEntity
  8
0
  6
CONTINUOUS
 62
          15
100
AcDbText
 10
14.960258483887
 20
-2.348973065615
 30
0.0
 40
1.5
  1
TERMINATION BOARD
 41
0.933333337307
  7
GOTHICI
100
AcDbText
  0
TEXT
  5
340
100
AcDbEntity
  8
0
  6
CONTINUOUS
 62
          15
100
AcDbText
 10
14.960258483887
 20
-4.748973160982
 30
0.0
 40
1.5
  1
MUST BE MOUNTED AS
 41
0.933333337307
  7
GOTHICI
100
AcDbText
  0
TEXT
  5
341
100
AcDbEntity
  8
0
  6
CONTINUOUS
 62
          15
100
AcDbText
 10
14.960258483887
 20
-7.14897325635
 30
0.0
 40
1.5
  1
CLOSE AS POSSIBLE
 41
0.933333337307
  7
GOTHICI
100
AcDbText
  0
TEXT
  5
342
100
AcDbEntity
  8
0
  6
CONTINUOUS
 62
          15
100
AcDbText
 10
14.960258483887
 20
-9.548973351717
 30
0.0
 40
1.5
  1
TO THE PLANT OR
 41
0.933333337307
  7
GOTHICI
100
AcDbText
  0
TEXT
  5
343
100
AcDbEntity
  8
0
  6
CONTINUOUS
 62
          15
100
AcDbText
 10
14.960258483887
 20
-11.948973447084
 30
0.0
 40
1.5
  1
MANIFOLD CONTACTS
 41
0.933333337307
  7
GOTHICI
100
AcDbText
  0
TEXT
  5
344
100
AcDbEntity
  8
0
  6
CONTINUOUS
 62
          15
100
AcDbText
 10
3.669967651367
 20
-50.448807859421
 30
0.0
 40
2.0
  1
PLANT CONTACTS
 41
1.050000011921
  7
GOTHICI
100
AcDbText
  0
ENDBLK
  5
345
100
AcDbEntity
  8
0
  6
BYBLOCK
 62
           0
100
AcDbBlockEnd
  0
BLOCK
  5
346
100
AcDbEntity
  8
0
100
AcDbBlockBegin
  2
CABLEREQ_8
 70
          64
 10
0.0
 20
0.0
 30
0.0
  3
CABLEREQ_8
  1

  0
TEXT
  5
347
100
AcDbEntity
  8
0
  6
CONTINUOUS
 62
          15
100
AcDbText
 10
-0.147918701172
 20
9.905471038818
 30
0.0
 40
1.5
  1
ALL SIGNAL CABLE TO BE A MINIMUM
 41
1.133333365122
  7
GOTHICI
100
AcDbText
  0
TEXT
  5
348
100
AcDbEntity
  8
0
  6
CONTINUOUS
 62
          15
100
AcDbText
 10
-0.147918701172
 20
7.505471038818
 30
0.0
 40
1.5
  1
OF 0.5 mm sq SCREENED / S.W.A /
 41
1.133333365122
  7
GOTHICI
100
AcDbText
  0
TEXT
  5
349
100
AcDbEntity
  8
0
  6
CONTINUOUS
 62
          15
100
AcDbText
 10
-0.147918701172
 20
5.105471038818
 30
0.0
 40
1.5
  1
OR IN METAL CONDUIT.
 41
1.133333365122
  7
GOTHICI
100
AcDbText
  0
TEXT
  5
34A
100
AcDbEntity
  8
0
  6
CONTINUOUS
 62
          15
100
AcDbText
 10
-0.147918701172
 20
2.705471038818
 30
0.0
 40
1.5
  1

 41
1.133333365122
  7
GOTHICI
100
AcDbText
  0
TEXT
  5
34B
100
AcDbEntity
  8
0
  6
CONTINUOUS
 62
          15
100
AcDbText
 10
-0.147918701172
 20
0.305471038818
 30
0.0
 40
1.5
  1
ALL JUNCTION BOXES MUST HAVE
 41
1.133333365122
  7
GOTHICI
100
AcDbText
  0
TEXT
  5
34C
100
AcDbEntity
  8
0
  6
CONTINUOUS
 62
          15
100
AcDbText
 10
-0.147918701172
 20
-2.094528961182
 30
0.0
 40
1.5
  1
THE SCREENS CONNECTED THROUGH
 41
1.133333365122
  7
GOTHICI
100
AcDbText
  0
TEXT
  5
34D
100
AcDbEntity
  8
0
  6
CONTINUOUS
 62
          15
100
AcDbText
 10
-0.147918701172
 20
-4.494528961182
 30
0.0
 40
1.5
  1

 41
1.133333365122
  7
GOTHICI
100
AcDbText
  0
TEXT
  5
34E
100
AcDbEntity
  8
0
  6
CONTINUOUS
 62
          15
100
AcDbText
 10
-0.147918701172
 20
-6.894528961182
 30
0.0
 40
1.5
  1
ALL SCREENS MUST BE EARTHED
 41
1.133333365122
  7
GOTHICI
100
AcDbText
  0
TEXT
  5
34F
100
AcDbEntity
  8
0
  6
CONTINUOUS
 62
          15
100
AcDbText
 10
-0.147918701172
 20
14.731792077422
 30
0.0
 40
2.0
  1
NOTE
  7
GOTHICI
100
AcDbText
  0
ENDBLK
  5
350
100
AcDbEntity
  8
0
  6
BYBLOCK
 62
           0
100
AcDbBlockEnd
  0
ENDSEC
  0
SECTION
  2
ENTITIES
  0
INSERT
  5
2B
100
AcDbEntity
  8
0
  6
CONTINUOUS
 62
           7
100
AcDbBlockReference
  2
RTX_1
 10
40.0
 20
148.0
 30
0.0
 41
2.0
 42
2.0
 43
2.0
  0
INSERT
  5
2C
100
AcDbEntity
  8
0
  6
CONTINUOUS
 62
           7
100
AcDbBlockReference
  2
SDX_2
 10
190.0
 20
148.0
 30
0.0
 41
1.5
 42
1.5
 43
1.5
  0
INSERT
  5
2D
100
AcDbEntity
  8
0
  6
CONTINUOUS
 62
           7
100
AcDbBlockReference
  2
SDXPSA_3
 10
194.997863769531
 20
147.994232177734
 30
0.0
  0
INSERT
  5
2E
100
AcDbEntity
  8
0
  6
CONTINUOUS
 62
           7
100
AcDbBlockReference
  2
SUPPLY_4
 10
105.666053771973
 20
114.678146362305
 30
0.0
  0
INSERT
  5
2F
100
AcDbEntity
  8
0
  6
CONTINUOUS
 62
           7
100
AcDbBlockReference
  2
TERMINAL_5
 10
32.078006744385
 20
116.150909423828
 30
0.0
 41
1.179999947548
 42
1.179999947548
 43
1.179999947548
  0
INSERT
  5
30
100
AcDbEntity
  8
0
  6
CONTINUOUS
 62
           7
100
AcDbBlockReference
  2
TERMINAL_6
 10
79.374603271484
 20
116.150909423828
 30
0.0
 41
1.179999947548
 42
1.179999947548
 43
1.179999947548
  0
INSERT
  5
31
100
AcDbEntity
  8
0
  6
CONTINUOUS
 62
           7
100
AcDbBlockReference
  2
TB4C_7
 10
34.732608795166
 20
53.948055267334
 30
0.0
  0
INSERT
  5
32
100
AcDbEntity
  8
0
  6
CONTINUOUS
 62
           7
100
AcDbBlockReference
  2
CABLEREQ_8
 10
209.76562395893
 20
13.907412390394
 30
0.0
  0
LINE
  5
33
100
AcDbEntity
  8
0
  6
CONTINUOUS
 62
          15
100
AcDbLine
 10
40.0
 20
148.0
 30
0.0
 11
56.359790802002
 21
131.458862304688
 31
0.0
  0
LINE
  5
34
100
AcDbEntity
  8
0
  6
CONTINUOUS
 62
          15
100
AcDbLine
 10
92.166870117188
 20
100.038269042969
 30
0.0
 11
193.661773681641
 21
100.038269042969
 31
0.0
  0
LINE
  5
35
100
AcDbEntity
  8
0
  6
CONTINUOUS
 62
          15
100
AcDbLine
 10
89.324005126953
 20
101.419868469238
 30
0.0
 11
188.213256835938
 21
101.419868469238
 31
0.0
  0
LINE
  5
36
100
AcDbEntity
  8
0
  6
CONTINUOUS
 62
          15
100
AcDbLine
 10
95.13200378418
 20
98.378074645996
 30
0.0
 11
199.322830200195
 21
98.378074645996
 31
0.0
  0
TEXT
  5
37
100
AcDbEntity
  8
0
  6
CONTINUOUS
 62
          15
100
AcDbText
 10
104.498603820801
 20
170.939520299435
 30
0.0
 40
3.0
  1
CENTRAL OR REPEATER
 41
1.033333341281
  7
ROMAND
100
AcDbText
  0
TEXT
  5
38
100
AcDbEntity
  8
0
  6
CONTINUOUS
 62
          15
100
AcDbText
 10
112.179092407227
 20
165.549475133419
 30
0.0
 40
3.0
  1
ALARM PANELS
 41
1.033333341281
  7
ROMAND
100
AcDbText
  0
TEXT
  5
39
100
AcDbEntity
  8
0
  6
CONTINUOUS
 62
          15
100
AcDbText
 10
183.406921386719
 20
88.52236482501
 30
0.0
 40
1.5
  1
TO OTHER SDX-15
 41
1.066666682561
  7
GOTHICI
100
AcDbText
  0
TEXT
  5
3A
100
AcDbEntity
  8
0
  6
CONTINUOUS
 62
          15
100
AcDbText
 10
185.898300170898
 20
86.19610902667
 30
0.0
 40
1.5
  1
EQUIPMENT AS
 41
1.066666682561
  7
GOTHICI
100
AcDbText
  0
TEXT
  5
3B
100
AcDbEntity
  8
0
  6
CONTINUOUS
 62
          15
100
AcDbText
 10
188.911224365234
 20
83.763484209776
 30
0.0
 40
1.5
  1
REQUIRED
 41
1.066666682561
  7
GOTHICI
100
AcDbText
  0
TEXT
  5
3C
100
AcDbEntity
  8
0
  6
CONTINUOUS
 62
          15
100
AcDbText
 10
120.700706481934
 20
102.410046391189
 30
0.0
 40
1.0
  1
NEUTRAL
 41
1.000000014901
  7
GOTHICG
100
AcDbText
  0
TEXT
  5
3D
100
AcDbEntity
  8
0
  6
CONTINUOUS
 62
          15
100
AcDbText
 10
120.669960021973
 20
104.780880741775
 30
0.0
 40
1.0
  1
EARTH
 41
1.000000014901
  7
GOTHICG
100
AcDbText
  0
TEXT
  5
3E
100
AcDbEntity
  8
0
  6
CONTINUOUS
 62
          15
100
AcDbText
 10
120.595397949219
 20
107.002522282302
 30
0.0
 40
1.0
  1
LIVE
 41
1.000000014901
  7
GOTHICG
100
AcDbText
  0
TEXT
  5
3F
100
AcDbEntity
  8
0
  6
CONTINUOUS
 62
          15
100
AcDbText
 10
127.880599975586
 20
104.17639618367
 30
0.0
 40
1.0
  1
FUSED AT 3 AMPS
 41
1.000000014901
  7
GOTHICG
100
AcDbText
  0
TEXT
  5
40
100
AcDbEntity
  8
0
  6
CONTINUOUS
 62
          15
100
AcDbText
 10
128.240356445313
 20
106.335797123611
 30
0.0
 40
1.0
  1
240 Vac SUPPLY
 41
1.000000014901
  7
GOTHICG
100
AcDbText
  0
TEXT
  5
41
100
AcDbEntity
  8
0
  6
CONTINUOUS
 62
          15
100
AcDbText
 10
32.838432312012
 20
164.587572664022
 30
0.0
 40
2.700000047684
  1
SDX-15
 41
0.962962954787
  7
GOTHICI
100
AcDbText
  0
TEXT
  5
42
100
AcDbEntity
  8
0
  6
CONTINUOUS
 62
          15
100
AcDbText
 10
32.729515075684
 20
159.357378572226
 30
0.0
 40
2.700000047684
  1
REMOTE
 41
0.962962954787
  7
GOTHICI
100
AcDbText
  0
TEXT
  5
43
100
AcDbEntity
  8
0
  6
CONTINUOUS
 62
          15
100
AcDbText
 10
26.412338256836
 20
154.56303653121
 30
0.0
 40
2.700000047684
  1
TRANSMITTER
 41
0.962962954787
  7
GOTHICI
100
AcDbText
  0
LINE
  5
44
100
AcDbEntity
  8
0
  6
CONTINUOUS
 62
          15
100
AcDbLine
 10
25.868246078491
 20
112.044387817383
 30
0.0
 11
40.766227722168
 21
112.044387817383
 31
0.0
  0
TEXT
  5
45
100
AcDbEntity
  8
0
  6
CONTINUOUS
 62
          15
100
AcDbText
 10
30.213041305542
 20
110.171109721065
 30
0.0
 40
1.078992009163
  1
1
  7
TXT
100
AcDbText
  0
TEXT
  5
46
100
AcDbEntity
  8
0
  6
CONTINUOUS
 62
          15
100
AcDbText
 10
33.015422821045
 20
110.171109721065
 30
0.0
 40
1.078992009163
  1
2
  7
TXT
100
AcDbText
  0
TEXT
  5
47
100
AcDbEntity
  8
0
  6
CONTINUOUS
 62
          15
100
AcDbText
 10
36.012626647949
 20
110.171109721065
 30
0.0
 40
1.078992009163
  1
3
  7
TXT
100
AcDbText
  0
TEXT
  5
48
100
AcDbEntity
  8
0
  6
CONTINUOUS
 62
          15
100
AcDbText
 10
39.009819030762
 20
110.171109721065
 30
0.0
 40
1.078992009163
  1
4
  7
TXT
100
AcDbText
  0
LINE
  5
49
100
AcDbEntity
  8
0
  6
CONTINUOUS
 62
          15
100
AcDbLine
 10
40.766227722168
 20
112.033874511719
 30
0.0
 11
40.766227722168
 21
120.276153564453
 31
0.0
  0
LINE
  5
4A
100
AcDbEntity
  8
0
  6
CONTINUOUS
 62
          15
100
AcDbLine
 10
30.020221710205
 20
115.366653442383
 30
0.0
 11
31.191650390625
 21
115.366653442383
 31
0.0
  0
LINE
  5
4B
100
AcDbEntity
  8
0
  6
CONTINUOUS
 62
          15
100
AcDbLine
 10
31.191650390625
 20
115.366653442383
 30
0.0
 11
31.191650390625
 21
113.289138793945
 31
0.0
  0
LINE
  5
4C
100
AcDbEntity
  8
0
  6
CONTINUOUS
 62
          15
100
AcDbLine
 10
31.191650390625
 20
113.289138793945
 30
0.0
 11
30.020221710205
 21
113.289138793945
 31
0.0
  0
LINE
  5
4D
100
AcDbEntity
  8
0
  6
CONTINUOUS
 62
          15
100
AcDbLine
 10
30.020221710205
 20
113.289138793945
 30
0.0
 11
30.020221710205
 21
115.366653442383
 31
0.0
  0
LINE
  5
4E
100
AcDbEntity
  8
0
  6
CONTINUOUS
 62
          15
100
AcDbLine
 10
30.020221710205
 20
113.986381530762
 30
0.0
 11
31.191650390625
 21
113.986381530762
 31
0.0
  0
ELLIPSE
  5
4F
100
AcDbEntity
  8
0
  6
CONTINUOUS
 62
          15
100
AcDbEllipse
 10
30.597393035889
 20
118.162261962891
 30
0.0
 11
-0.8523110151290796
 21
0.0000001286953828
 31
0.0
210
0.0
220
0.0
230
1.0
 40
0.624739307353
 41
0.0
 42
6.2831853071795862
  0
LINE
  5
50
100
AcDbEntity
  8
0
  6
CONTINUOUS
 62
          15
100
AcDbLine
 10
31.022922515869
 20
117.73673248291
 30
0.0
 11
30.171871185303
 21
118.587799072266
 31
0.0
  0
LINE
  5
51
100
AcDbEntity
  8
0
  6
CONTINUOUS
 62
          15
100
AcDbLine
 10
32.863079071045
 20
115.366653442383
 30
0.0
 11
34.034511566162
 21
115.366653442383
 31
0.0
  0
LINE
  5
52
100
AcDbEntity
  8
0
  6
CONTINUOUS
 62
          15
100
AcDbLine
 10
34.034511566162
 20
115.366653442383
 30
0.0
 11
34.034511566162
 21
113.289138793945
 31
0.0
  0
LINE
  5
53
100
AcDbEntity
  8
0
  6
CONTINUOUS
 62
          15
100
AcDbLine
 10
34.034511566162
 20
113.289138793945
 30
0.0
 11
32.863079071045
 21
113.289138793945
 31
0.0
  0
LINE
  5
54
100
AcDbEntity
  8
0
  6
CONTINUOUS
 62
          15
100
AcDbLine
 10
32.863079071045
 20
113.289138793945
 30
0.0
 11
32.863079071045
 21
115.366653442383
 31
0.0
  0
LINE
  5
55
100
AcDbEntity
  8
0
  6
CONTINUOUS
 62
          15
100
AcDbLine
 10
32.863079071045
 20
113.986381530762
 30
0.0
 11
34.034511566162
 21
113.986381530762
 31
0.0
  0
ELLIPSE
  5
56
100
AcDbEntity
  8
0
  6
CONTINUOUS
 62
          15
100
AcDbEllipse
 10
33.440250396729
 20
118.162261962891
 30
0.0
 11
-0.8523110151290796
 21
0.0000001286953828
 31
0.0
210
0.0
220
0.0
230
1.0
 40
0.624739307353
 41
0.0
 42
6.2831853071795862
  0
LINE
  5
57
100
AcDbEntity
  8
0
  6
CONTINUOUS
 62
          15
100
AcDbLine
 10
33.865783691406
 20
117.73673248291
 30
0.0
 11
33.01473236084
 21
118.587799072266
 31
0.0
  0
LINE
  5
58
100
AcDbEntity
  8
0
  6
CONTINUOUS
 62
          15
100
AcDbLine
 10
35.828212738037
 20
115.366653442383
 30
0.0
 11
36.999645233154
 21
115.366653442383
 31
0.0
  0
LINE
  5
59
100
AcDbEntity
  8
0
  6
CONTINUOUS
 62
          15
100
AcDbLine
 10
36.999645233154
 20
115.366653442383
 30
0.0
 11
36.999645233154
 21
113.289138793945
 31
0.0
  0
LINE
  5
5A
100
AcDbEntity
  8
0
  6
CONTINUOUS
 62
          15
100
AcDbLine
 10
36.999645233154
 20
113.289138793945
 30
0.0
 11
35.828212738037
 21
113.289138793945
 31
0.0
  0
LINE
  5
5B
100
AcDbEntity
  8
0
  6
CONTINUOUS
 62
          15
100
AcDbLine
 10
35.828212738037
 20
113.289138793945
 30
0.0
 11
35.828212738037
 21
115.366653442383
 31
0.0
  0
LINE
  5
5C
100
AcDbEntity
  8
0
  6
CONTINUOUS
 62
          15
100
AcDbLine
 10
35.828212738037
 20
113.986381530762
 30
0.0
 11
36.999645233154
 21
113.986381530762
 31
0.0
  0
ELLIPSE
  5
5D
100
AcDbEntity
  8
0
  6
CONTINUOUS
 62
          15
100
AcDbEllipse
 10
36.405384063721
 20
118.162261962891
 30
0.0
 11
-0.8523110151290796
 21
0.0000001286953828
 31
0.0
210
0.0
220
0.0
230
1.0
 40
0.624739307353
 41
0.0
 42
6.2831853071795862
  0
LINE
  5
5E
100
AcDbEntity
  8
0
  6
CONTINUOUS
 62
          15
100
AcDbLine
 10
36.830913543701
 20
117.73673248291
 30
0.0
 11
35.979866027832
 21
118.587799072266
 31
0.0
  0
LINE
  5
5F
100
AcDbEntity
  8
0
  6
CONTINUOUS
 62
          15
100
AcDbLine
 10
38.885051727295
 20
115.366653442383
 30
0.0
 11
40.056484222412
 21
115.366653442383
 31
0.0
  0
LINE
  5
60
100
AcDbEntity
  8
0
  6
CONTINUOUS
 62
          15
100
AcDbLine
 10
40.056484222412
 20
115.366653442383
 30
0.0
 11
40.056484222412
 21
113.289138793945
 31
0.0
  0
LINE
  5
61
100
AcDbEntity
  8
0
  6
CONTINUOUS
 62
          15
100
AcDbLine
 10
40.056484222412
 20
113.289138793945
 30
0.0
 11
38.885051727295
 21
113.289138793945
 31
0.0
  0
LINE
  5
62
100
AcDbEntity
  8
0
  6
CONTINUOUS
 62
          15
100
AcDbLine
 10
38.885051727295
 20
113.289138793945
 30
0.0
 11
38.885051727295
 21
115.366653442383
 31
0.0
  0
LINE
  5
63
100
AcDbEntity
  8
0
  6
CONTINUOUS
 62
          15
100
AcDbLine
 10
38.885051727295
 20
113.986381530762
 30
0.0
 11
40.056484222412
 21
113.986381530762
 31
0.0
  0
ELLIPSE
  5
64
100
AcDbEntity
  8
0
  6
CONTINUOUS
 62
          15
100
AcDbEllipse
 10
39.462223052979
 20
118.162261962891
 30
0.0
 11
-0.8523110151290796
 21
0.0000001286953828
 31
0.0
210
0.0
220
0.0
230
1.0
 40
0.624739307353
 41
0.0
 42
6.2831853071795862
  0
LINE
  5
65
100
AcDbEntity
  8
0
  6
CONTINUOUS
 62
          15
100
AcDbLine
 10
39.887756347656
 20
117.73673248291
 30
0.0
 11
39.03670501709
 21
118.587799072266
 31
0.0
  0
LINE
  5
66
100
AcDbEntity
  8
0
  6
CONTINUOUS
 62
          15
100
AcDbLine
 10
26.749401092529
 20
115.366653442383
 30
0.0
 11
27.920831680298
 21
115.366653442383
 31
0.0
  0
LINE
  5
67
100
AcDbEntity
  8
0
  6
CONTINUOUS
 62
          15
100
AcDbLine
 10
27.920831680298
 20
115.366653442383
 30
0.0
 11
27.920831680298
 21
113.289138793945
 31
0.0
  0
LINE
  5
68
100
AcDbEntity
  8
0
  6
CONTINUOUS
 62
          15
100
AcDbLine
 10
27.920831680298
 20
113.289138793945
 30
0.0
 11
26.749401092529
 21
113.289138793945
 31
0.0
  0
LINE
  5
69
100
AcDbEntity
  8
0
  6
CONTINUOUS
 62
          15
100
AcDbLine
 10
26.749401092529
 20
113.289138793945
 30
0.0
 11
26.749401092529
 21
115.366653442383
 31
0.0
  0
LINE
  5
6A
100
AcDbEntity
  8
0
  6
CONTINUOUS
 62
          15
100
AcDbLine
 10
26.749401092529
 20
113.986381530762
 30
0.0
 11
27.920831680298
 21
113.986381530762
 31
0.0
  0
ELLIPSE
  5
6B
100
AcDbEntity
  8
0
  6
CONTINUOUS
 62
          15
100
AcDbEllipse
 10
27.326572418213
 20
118.162261962891
 30
0.0
 11
-0.8523110151290796
 21
0.0000001286953828
 31
0.0
210
0.0
220
0.0
230
1.0
 40
0.624739307353
 41
0.0
 42
6.2831853071795862
  0
LINE
  5
6C
100
AcDbEntity
  8
0
  6
CONTINUOUS
 62
          15
100
AcDbLine
 10
27.752103805542
 20
117.73673248291
 30
0.0
 11
26.901052474976
 21
118.587799072266
 31
0.0
  0
LINE
  5
6D
100
AcDbEntity
  8
0
  6
CONTINUOUS
 62
          15
100
AcDbLine
 10
28.932737350464
 20
112.044387817383
 30
0.0
 11
28.932737350464
 21
120.276153564453
 31
0.0
  0
LINE
  5
6E
100
AcDbEntity
  8
0
  6
CONTINUOUS
 62
          15
100
AcDbLine
 10
32.0207862854
 20
112.044387817383
 30
0.0
 11
32.0207862854
 21
120.276153564453
 31
0.0
  0
LINE
  5
6F
100
AcDbEntity
  8
0
  6
CONTINUOUS
 62
          15
100
AcDbLine
 10
34.917537689209
 20
112.044387817383
 30
0.0
 11
34.917537689209
 21
120.276153564453
 31
0.0
  0
LINE
  5
70
100
AcDbEntity
  8
0
  6
CONTINUOUS
 62
          15
100
AcDbLine
 10
37.923603057861
 20
112.044387817383
 30
0.0
 11
37.923603057861
 21
120.276153564453
 31
0.0
  0
LINE
  5
71
100
AcDbEntity
  8
0
  6
CONTINUOUS
 62
          15
100
AcDbLine
 10
40.766227722168
 20
112.037696838379
 30
0.0
 11
40.766227722168
 21
120.279983520508
 31
0.0
  0
TEXT
  5
72
100
AcDbEntity
  8
0
  6
CONTINUOUS
 62
          15
100
AcDbText
 10
26.968488693237
 20
110.171109721065
 30
0.0
 40
1.078992009163
  1
C
  7
TXT
100
AcDbText
  0
LINE
  5
73
100
AcDbEntity
  8
0
  6
CONTINUOUS
 62
          15
100
AcDbLine
 10
25.868246078491
 20
112.044387817383
 30
0.0
 11
25.868246078491
 21
120.276153564453
 31
0.0
  0
TEXT
  5
74
100
AcDbEntity
  8
0
  6
CONTINUOUS
 62
          15
100
AcDbText
 10
28.933174133301
 20
107.923245951533
 30
0.0
 40
1.078992009163
  1
SERVICE A
 41
1.027777737881
  7
TXT
100
AcDbText
  0
TEXT
  5
75
100
AcDbEntity
  8
0
  6
CONTINUOUS
 62
          15
100
AcDbText
 10
44.560802459717
 20
110.171109721065
 30
0.0
 40
1.078992009163
  1
1
  7
TXT
100
AcDbText
  0
TEXT
  5
76
100
AcDbEntity
  8
0
  6
CONTINUOUS
 62
          15
100
AcDbText
 10
47.558002471924
 20
110.171109721065
 30
0.0
 40
1.078992009163
  1
2
  7
TXT
100
AcDbText
  0
TEXT
  5
77
100
AcDbEntity
  8
0
  6
CONTINUOUS
 62
          15
100
AcDbText
 10
50.555202484131
 20
110.171109721065
 30
0.0
 40
1.078992009163
  1
3
  7
TXT
100
AcDbText
  0
TEXT
  5
78
100
AcDbEntity
  8
0
  6
CONTINUOUS
 62
          15
100
AcDbText
 10
53.357585906982
 20
110.171109721065
 30
0.0
 40
1.078992009163
  1
4
  7
TXT
100
AcDbText
  0
TEXT
  5
79
100
AcDbEntity
  8
0
  6
CONTINUOUS
 62
          15
100
AcDbText
 10
42.687557220459
 20
107.923245951533
 30
0.0
 40
1.078992009163
  1
SERVICE B
 41
1.027777737881
  7
TXT
100
AcDbText
  0
TEXT
  5
7A
100
AcDbEntity
  8
0
  6
CONTINUOUS
 62
          15
100
AcDbText
 10
41.788299560547
 20
110.171109721065
 30
0.0
 40
1.078992009163
  1
C
  7
TXT
100
AcDbText
  0
LINE
  5
7B
100
AcDbEntity
  8
0
  6
CONTINUOUS
 62
          15
100
AcDbLine
 10
55.544410705566
 20
112.044387817383
 30
0.0
 11
55.544410705566
 21
120.276153564453
 31
0.0
  0
TEXT
  5
7C
100
AcDbEntity
  8
0
  6
CONTINUOUS
 62
          15
100
AcDbText
 10
59.889205932617
 20
110.171109721065
 30
0.0
 40
1.078992009163
  1
1
  7
TXT
100
AcDbText
  0
TEXT
  5
7D
100
AcDbEntity
  8
0
  6
CONTINUOUS
 62
          15
100
AcDbText
 10
62.691589355469
 20
110.171109721065
 30
0.0
 40
1.078992009163
  1
2
  7
TXT
100
AcDbText
  0
TEXT
  5
7E
100
AcDbEntity
  8
0
  6
CONTINUOUS
 62
          15
100
AcDbText
 10
65.688789367676
 20
110.171109721065
 30
0.0
 40
1.078992009163
  1
3
  7
TXT
100
AcDbText
  0
TEXT
  5
7F
100
AcDbEntity
  8
0
  6
CONTINUOUS
 62
          15
100
AcDbText
 10
68.685981750488
 20
110.171109721065
 30
0.0
 40
1.078992009163
  1
4
  7
TXT
100
AcDbText
  0
LINE
  5
80
100
AcDbEntity
  8
0
  6
CONTINUOUS
 62
          15
100
AcDbLine
 10
70.442390441895
 20
112.044387817383
 30
0.0
 11
70.442390441895
 21
120.276153564453
 31
0.0
  0
LINE
  5
81
100
AcDbEntity
  8
0
  6
CONTINUOUS
 62
          15
100
AcDbLine
 10
40.766227722168
 20
112.044387817383
 30
0.0
 11
85.220573425293
 21
112.044387817383
 31
0.0
  0
LINE
  5
82
100
AcDbEntity
  8
0
  6
CONTINUOUS
 62
          15
100
AcDbLine
 10
70.442390441895
 20
112.037696838379
 30
0.0
 11
70.442390441895
 21
120.279983520508
 31
0.0
  0
TEXT
  5
83
100
AcDbEntity
  8
0
  6
CONTINUOUS
 62
          15
100
AcDbText
 10
56.64465713501
 20
110.171109721065
 30
0.0
 40
1.078992009163
  1
C
  7
TXT
100
AcDbText
  0
TEXT
  5
84
100
AcDbEntity
  8
0
  6
CONTINUOUS
 62
          15
100
AcDbText
 10
58.609340667725
 20
107.923245951533
 30
0.0
 40
1.078992009163
  1
SERVICE C
 41
1.027777737881
  7
TXT
100
AcDbText
  0
TEXT
  5
85
100
AcDbEntity
  8
0
  6
CONTINUOUS
 62
          15
100
AcDbText
 10
74.236968994141
 20
110.171109721065
 30
0.0
 40
1.078992009163
  1
1
  7
TXT
100
AcDbText
  0
TEXT
  5
86
100
AcDbEntity
  8
0
  6
CONTINUOUS
 62
          15
100
AcDbText
 10
77.234169006348
 20
110.171109721065
 30
0.0
 40
1.078992009163
  1
2
  7
TXT
100
AcDbText
  0
TEXT
  5
87
100
AcDbEntity
  8
0
  6
CONTINUOUS
 62
          15
100
AcDbText
 10
80.231369018555
 20
110.171109721065
 30
0.0
 40
1.078992009163
  1
3
  7
TXT
100
AcDbText
  0
TEXT
  5
88
100
AcDbEntity
  8
0
  6
CONTINUOUS
 62
          15
100
AcDbText
 10
83.033752441406
 20
110.171109721065
 30
0.0
 40
1.078992009163
  1
4
  7
TXT
100
AcDbText
  0
TEXT
  5
89
100
AcDbEntity
  8
0
  6
CONTINUOUS
 62
          15
100
AcDbText
 10
72.363723754883
 20
107.923245951533
 30
0.0
 40
1.078992009163
  1
SERVICE D
 41
1.027777737881
  7
TXT
100
AcDbText
  0
TEXT
  5
8A
100
AcDbEntity
  8
0
  6
CONTINUOUS
 62
          15
100
AcDbText
 10
71.464462280273
 20
110.171109721065
 30
0.0
 40
1.078992009163
  1
C
  7
TXT
100
AcDbText
  0
LINE
  5
8B
100
AcDbEntity
  8
0
  6
CONTINUOUS
 62
          15
100
AcDbLine
 10
85.220573425293
 20
112.044387817383
 30
0.0
 11
85.220573425293
 21
120.276153564453
 31
0.0
  0
LINE
  5
8C
100
AcDbEntity
  8
0
  6
CONTINUOUS
 62
          15
100
AcDbLine
 10
96.600616455078
 20
120.200004577637
 30
0.0
 11
87.788841247559
 21
120.200004577637
 31
0.0
  0
LINE
  5
8D
100
AcDbEntity
  8
0
  6
CONTINUOUS
 62
          15
100
AcDbLine
 10
96.600616455078
 20
120.200004577637
 30
0.0
 11
96.600616455078
 21
112.889930725098
 31
0.0
  0
LINE
  5
8E
100
AcDbEntity
  8
0
  6
CONTINUOUS
 62
          15
100
AcDbLine
 10
87.788841247559
 20
112.889930725098
 30
0.0
 11
87.788841247559
 21
120.200004577637
 31
0.0
  0
TEXT
  5
8F
100
AcDbEntity
  8
0
  6
CONTINUOUS
 62
          15
100
AcDbText
 10
88.927787780762
 20
111.208409830928
 30
0.0
 40
1.078992009163
  1
1
  7
TXT
100
AcDbText
  0
TEXT
  5
90
100
AcDbEntity
  8
0
  6
CONTINUOUS
 62
          15
100
AcDbText
 10
91.730163574219
 20
111.208409830928
 30
0.0
 40
1.078992009163
  1
2
  7
TXT
100
AcDbText
  0
TEXT
  5
91
100
AcDbEntity
  8
0
  6
CONTINUOUS
 62
          15
100
AcDbText
 10
94.727355957031
 20
111.208409830928
 30
0.0
 40
1.078992009163
  1
S
  7
TXT
100
AcDbText
  0
TEXT
  5
92
100
AcDbEntity
  8
0
  6
CONTINUOUS
 62
          15
100
AcDbText
 10
88.55313873291
 20
108.960546061397
 30
0.0
 40
1.078992009163
  1
SIGNALS
 41
1.037036993049
  7
TXT
100
AcDbText
  0
LINE
  5
93
100
AcDbEntity
  8
0
  6
CONTINUOUS
 62
          15
100
AcDbLine
 10
87.788841247559
 20
112.889930725098
 30
0.0
 11
96.600616455078
 21
112.889930725098
 31
0.0
  0
LINE
  5
94
100
AcDbEntity
  8
0
  6
CONTINUOUS
 62
          15
100
AcDbLine
 10
88.738296508789
 20
115.968109130859
 30
0.0
 11
89.909721374512
 21
115.968109130859
 31
0.0
  0
LINE
  5
95
100
AcDbEntity
  8
0
  6
CONTINUOUS
 62
          15
100
AcDbLine
 10
89.909721374512
 20
115.968109130859
 30
0.0
 11
89.909721374512
 21
113.890594482422
 31
0.0
  0
LINE
  5
96
100
AcDbEntity
  8
0
  6
CONTINUOUS
 62
          15
100
AcDbLine
 10
89.909721374512
 20
113.890594482422
 30
0.0
 11
88.738296508789
 21
113.890594482422
 31
0.0
  0
LINE
  5
97
100
AcDbEntity
  8
0
  6
CONTINUOUS
 62
          15
100
AcDbLine
 10
88.738296508789
 20
113.890594482422
 30
0.0
 11
88.738296508789
 21
115.968109130859
 31
0.0
  0
LINE
  5
98
100
AcDbEntity
  8
0
  6
CONTINUOUS
 62
          15
100
AcDbLine
 10
88.738296508789
 20
114.587844848633
 30
0.0
 11
89.909721374512
 21
114.587844848633
 31
0.0
  0
ELLIPSE
  5
99
100
AcDbEntity
  8
0
  6
CONTINUOUS
 62
          15
100
AcDbEllipse
 10
89.315467834473
 20
118.763725280762
 30
0.0
 11
-0.8523110151290796
 21
0.0000001286953828
 31
0.0
210
0.0
220
0.0
230
1.0
 40
0.624739307353
 41
0.0
 42
6.2831853071795862
  0
LINE
  5
9A
100
AcDbEntity
  8
0
  6
CONTINUOUS
 62
          15
100
AcDbLine
 10
89.740997314453
 20
118.338195800781
 30
0.0
 11
88.889945983887
 21
119.189262390137
 31
0.0
  0
LINE
  5
9B
100
AcDbEntity
  8
0
  6
CONTINUOUS
 62
          15
100
AcDbLine
 10
91.581153869629
 20
115.968109130859
 30
0.0
 11
92.752578735352
 21
115.968109130859
 31
0.0
  0
LINE
  5
9C
100
AcDbEntity
  8
0
  6
CONTINUOUS
 62
          15
100
AcDbLine
 10
92.752578735352
 20
115.968109130859
 30
0.0
 11
92.752578735352
 21
113.890594482422
 31
0.0
  0
LINE
  5
9D
100
AcDbEntity
  8
0
  6
CONTINUOUS
 62
          15
100
AcDbLine
 10
92.752578735352
 20
113.890594482422
 30
0.0
 11
91.581153869629
 21
113.890594482422
 31
0.0
  0
LINE
  5
9E
100
AcDbEntity
  8
0
  6
CONTINUOUS
 62
          15
100
AcDbLine
 10
91.581153869629
 20
113.890594482422
 30
0.0
 11
91.581153869629
 21
115.968109130859
 31
0.0
  0
LINE
  5
9F
100
AcDbEntity
  8
0
  6
CONTINUOUS
 62
          15
100
AcDbLine
 10
91.581153869629
 20
114.587844848633
 30
0.0
 11
92.752578735352
 21
114.587844848633
 31
0.0
  0
ELLIPSE
  5
A0
100
AcDbEntity
  8
0
  6
CONTINUOUS
 62
          15
100
AcDbEllipse
 10
92.158325195313
 20
118.763725280762
 30
0.0
 11
-0.8523110151290796
 21
0.0000001286953828
 31
0.0
210
0.0
220
0.0
230
1.0
 40
0.624739307353
 41
0.0
 42
6.2831853071795862
  0
LINE
  5
A1
100
AcDbEntity
  8
0
  6
CONTINUOUS
 62
          15
100
AcDbLine
 10
92.583854675293
 20
118.338195800781
 30
0.0
 11
91.732803344727
 21
119.189262390137
 31
0.0
  0
LINE
  5
A2
100
AcDbEntity
  8
0
  6
CONTINUOUS
 62
          15
100
AcDbLine
 10
94.546287536621
 20
115.968109130859
 30
0.0
 11
95.717712402344
 21
115.968109130859
 31
0.0
  0
LINE
  5
A3
100
AcDbEntity
  8
0
  6
CONTINUOUS
 62
          15
100
AcDbLine
 10
95.717712402344
 20
115.968109130859
 30
0.0
 11
95.717712402344
 21
113.890594482422
 31
0.0
  0
LINE
  5
A4
100
AcDbEntity
  8
0
  6
CONTINUOUS
 62
          15
100
AcDbLine
 10
95.717712402344
 20
113.890594482422
 30
0.0
 11
94.546287536621
 21
113.890594482422
 31
0.0
  0
LINE
  5
A5
100
AcDbEntity
  8
0
  6
CONTINUOUS
 62
          15
100
AcDbLine
 10
94.546287536621
 20
113.890594482422
 30
0.0
 11
94.546287536621
 21
115.968109130859
 31
0.0
  0
LINE
  5
A6
100
AcDbEntity
  8
0
  6
CONTINUOUS
 62
          15
100
AcDbLine
 10
94.546287536621
 20
114.587844848633
 30
0.0
 11
95.717712402344
 21
114.587844848633
 31
0.0
  0
ELLIPSE
  5
A7
100
AcDbEntity
  8
0
  6
CONTINUOUS
 62
          15
100
AcDbEllipse
 10
95.123458862305
 20
118.763725280762
 30
0.0
 11
-0.8523110151290796
 21
0.0000001286953828
 31
0.0
210
0.0
220
0.0
230
1.0
 40
0.624739307353
 41
0.0
 42
6.2831853071795862
  0
LINE
  5
A8
100
AcDbEntity
  8
0
  6
CONTINUOUS
 62
          15
100
AcDbLine
 10
95.548988342285
 20
118.338195800781
 30
0.0
 11
94.697937011719
 21
119.189262390137
 31
0.0
  0
LINE
  5
A9
100
AcDbEntity
  8
0
  6
CONTINUOUS
 62
          15
100
AcDbLine
 10
90.73885345459
 20
112.889930725098
 30
0.0
 11
90.73885345459
 21
120.200004577637
 31
0.0
  0
LINE
  5
AA
100
AcDbEntity
  8
0
  6
CONTINUOUS
 62
          15
100
AcDbLine
 10
93.635612487793
 20
112.889930725098
 30
0.0
 11
93.635612487793
 21
120.200004577637
 31
0.0
  0
LINE
  5
AB
100
AcDbEntity
  8
0
  6
CONTINUOUS
 62
          15
100
AcDbLine
 10
87.788841247559
 20
117.064277648926
 30
0.0
 11
96.588874816895
 21
117.064277648926
 31
0.0
  0
LINE
  5
AC
100
AcDbEntity
  8
0
  6
CONTINUOUS
 62
          15
100
AcDbLine
 10
101.380104064941
 20
119.380867004395
 30
0.0
 11
110.191879272461
 21
119.380867004395
 31
0.0
  0
LINE
  5
AD
100
AcDbEntity
  8
0
  6
CONTINUOUS
 62
          15
100
AcDbLine
 10
110.191879272461
 20
126.690940856934
 30
0.0
 11
101.380104064941
 21
126.690940856934
 31
0.0
  0
LINE
  5
AE
100
AcDbEntity
  8
0
  6
CONTINUOUS
 62
          15
100
AcDbLine
 10
110.191879272461
 20
126.690940856934
 30
0.0
 11
110.191879272461
 21
119.380867004395
 31
0.0
  0
LINE
  5
AF
100
AcDbEntity
  8
0
  6
CONTINUOUS
 62
          15
100
AcDbLine
 10
101.380104064941
 20
119.380867004395
 30
0.0
 11
101.380104064941
 21
126.690940856934
 31
0.0
  0
LINE
  5
B0
100
AcDbEntity
  8
0
  6
CONTINUOUS
 62
          15
100
AcDbLine
 10
101.380104064941
 20
119.380867004395
 30
0.0
 11
110.191879272461
 21
119.380867004395
 31
0.0
  0
LINE
  5
B1
100
AcDbEntity
  8
0
  6
CONTINUOUS
 62
          15
100
AcDbLine
 10
102.329551696777
 20
122.459053039551
 30
0.0
 11
103.500984191895
 21
122.459053039551
 31
0.0
  0
LINE
  5
B2
100
AcDbEntity
  8
0
  6
CONTINUOUS
 62
          15
100
AcDbLine
 10
103.500984191895
 20
122.459053039551
 30
0.0
 11
103.500984191895
 21
120.381538391113
 31
0.0
  0
LINE
  5
B3
100
AcDbEntity
  8
0
  6
CONTINUOUS
 62
          15
100
AcDbLine
 10
103.500984191895
 20
120.381538391113
 30
0.0
 11
102.329551696777
 21
120.381538391113
 31
0.0
  0
LINE
  5
B4
100
AcDbEntity
  8
0
  6
CONTINUOUS
 62
          15
100
AcDbLine
 10
102.329551696777
 20
120.381538391113
 30
0.0
 11
102.329551696777
 21
122.459053039551
 31
0.0
  0
LINE
  5
B5
100
AcDbEntity
  8
0
  6
CONTINUOUS
 62
          15
100
AcDbLine
 10
102.329551696777
 20
121.078788757324
 30
0.0
 11
103.500984191895
 21
121.078788757324
 31
0.0
  0
ELLIPSE
  5
B6
100
AcDbEntity
  8
0
  6
CONTINUOUS
 62
          15
100
AcDbEllipse
 10
102.906723022461
 20
125.254661560059
 30
0.0
 11
-0.8523110151290796
 21
0.0000001286953828
 31
0.0
210
0.0
220
0.0
230
1.0
 40
0.624739307353
 41
0.0
 42
6.2831853071795862
  0
LINE
  5
B7
100
AcDbEntity
  8
0
  6
CONTINUOUS
 62
          15
100
AcDbLine
 10
103.332252502441
 20
124.829132080078
 30
0.0
 11
102.481201171875
 21
125.680206298828
 31
0.0
  0
LINE
  5
B8
100
AcDbEntity
  8
0
  6
CONTINUOUS
 62
          15
100
AcDbLine
 10
105.172409057617
 20
122.459053039551
 30
0.0
 11
106.343841552734
 21
122.459053039551
 31
0.0
  0
LINE
  5
B9
100
AcDbEntity
  8
0
  6
CONTINUOUS
 62
          15
100
AcDbLine
 10
106.343841552734
 20
122.459053039551
 30
0.0
 11
106.343841552734
 21
120.381538391113
 31
0.0
  0
LINE
  5
BA
100
AcDbEntity
  8
0
  6
CONTINUOUS
 62
          15
100
AcDbLine
 10
106.343841552734
 20
120.381538391113
 30
0.0
 11
105.172409057617
 21
120.381538391113
 31
0.0
  0
LINE
  5
BB
100
AcDbEntity
  8
0
  6
CONTINUOUS
 62
          15
100
AcDbLine
 10
105.172409057617
 20
120.381538391113
 30
0.0
 11
105.172409057617
 21
122.459053039551
 31
0.0
  0
LINE
  5
BC
100
AcDbEntity
  8
0
  6
CONTINUOUS
 62
          15
100
AcDbLine
 10
105.172409057617
 20
121.078788757324
 30
0.0
 11
106.343841552734
 21
121.078788757324
 31
0.0
  0
ELLIPSE
  5
BD
100
AcDbEntity
  8
0
  6
CONTINUOUS
 62
          15
100
AcDbEllipse
 10
105.749580383301
 20
125.254661560059
 30
0.0
 11
-0.8523110151290796
 21
0.0000001286953828
 31
0.0
210
0.0
220
0.0
230
1.0
 40
0.624739307353
 41
0.0
 42
6.2831853071795862
  0
LINE
  5
BE
100
AcDbEntity
  8
0
  6
CONTINUOUS
 62
          15
100
AcDbLine
 10
106.175117492676
 20
124.829132080078
 30
0.0
 11
105.324066162109
 21
125.680206298828
 31
0.0
  0
LINE
  5
BF
100
AcDbEntity
  8
0
  6
CONTINUOUS
 62
          15
100
AcDbLine
 10
108.137542724609
 20
122.459053039551
 30
0.0
 11
109.308975219727
 21
122.459053039551
 31
0.0
  0
LINE
  5
C0
100
AcDbEntity
  8
0
  6
CONTINUOUS
 62
          15
100
AcDbLine
 10
109.308975219727
 20
122.459053039551
 30
0.0
 11
109.308975219727
 21
120.381538391113
 31
0.0
  0
LINE
  5
C1
100
AcDbEntity
  8
0
  6
CONTINUOUS
 62
          15
100
AcDbLine
 10
109.308975219727
 20
120.381538391113
 30
0.0
 11
108.137542724609
 21
120.381538391113
 31
0.0
  0
LINE
  5
C2
100
AcDbEntity
  8
0
  6
CONTINUOUS
 62
          15
100
AcDbLine
 10
108.137542724609
 20
120.381538391113
 30
0.0
 11
108.137542724609
 21
122.459053039551
 31
0.0
  0
LINE
  5
C3
100
AcDbEntity
  8
0
  6
CONTINUOUS
 62
          15
100
AcDbLine
 10
108.137542724609
 20
121.078788757324
 30
0.0
 11
109.308975219727
 21
121.078788757324
 31
0.0
  0
ELLIPSE
  5
C4
100
AcDbEntity
  8
0
  6
CONTINUOUS
 62
          15
100
AcDbEllipse
 10
108.714714050293
 20
125.254661560059
 30
0.0
 11
-0.8523110151290796
 21
0.0000001286953828
 31
0.0
210
0.0
220
0.0
230
1.0
 40
0.624739307353
 41
0.0
 42
6.2831853071795862
  0
LINE
  5
C5
100
AcDbEntity
  8
0
  6
CONTINUOUS
 62
          15
100
AcDbLine
 10
109.140243530273
 20
124.829132080078
 30
0.0
 11
108.289199829102
 21
125.680206298828
 31
0.0
  0
LINE
  5
C6
100
AcDbEntity
  8
0
  6
CONTINUOUS
 62
          15
100
AcDbLine
 10
104.330108642578
 20
119.380867004395
 30
0.0
 11
104.330108642578
 21
126.690940856934
 31
0.0
  0
LINE
  5
C7
100
AcDbEntity
  8
0
  6
CONTINUOUS
 62
          15
100
AcDbLine
 10
107.226867675781
 20
119.380867004395
 30
0.0
 11
107.226867675781
 21
126.690940856934
 31
0.0
  0
LINE
  5
C8
100
AcDbEntity
  8
0
  6
CONTINUOUS
 62
          15
100
AcDbLine
 10
101.380104064941
 20
123.555221557617
 30
0.0
 11
110.180137634277
 21
123.555221557617
 31
0.0
  0
LINE
  5
C9
100
AcDbEntity
  8
0
  6
CONTINUOUS
 62
          15
100
AcDbLine
 10
104.100898742676
 20
117.972862243652
 30
0.0
 11
107.797790527344
 21
117.972862243652
 31
0.0
  0
LINE
  5
CA
100
AcDbEntity
  8
0
  6
CONTINUOUS
 62
          15
100
AcDbLine
 10
104.653297424316
 20
117.250778198242
 30
0.0
 11
107.11791229248
 21
117.250778198242
 31
0.0
  0
LINE
  5
CB
100
AcDbEntity
  8
0
  6
CONTINUOUS
 62
          15
100
AcDbLine
 10
105.205718994141
 20
116.528701782227
 30
0.0
 11
106.438011169434
 21
116.528701782227
 31
0.0
  0
LINE
  5
CC
100
AcDbEntity
  8
0
  6
CONTINUOUS
 62
          15
100
AcDbLine
 10
105.758125305176
 20
121.078788757324
 30
0.0
 11
105.758125305176
 21
117.972862243652
 31
0.0
  0
TEXT
  5
CD
100
AcDbEntity
  8
0
  6
CONTINUOUS
 62
          15
100
AcDbText
 10
102.426406860352
 20
114.775640055537
 30
0.0
 40
1.078992009163
  1
240Vac
 41
1.044444402707
  7
TXT
100
AcDbText
  0
TEXT
  5
CE
100
AcDbEntity
  8
0
  6
CONTINUOUS
 62
          15
100
AcDbText
 10
108.479110717773
 20
117.4666800946
 30
0.0
 40
1.078992009163
  1
L
  7
TXT
100
AcDbText
  0
TEXT
  5
CF
100
AcDbEntity
  8
0
  6
CONTINUOUS
 62
          15
100
AcDbText
 10
102.431427001953
 20
117.4666800946
 30
0.0
 40
1.078992009163
  1
N
  7
TXT
100
AcDbText
  0
LINE
  5
D0
100
AcDbEntity
  8
0
  6
CONTINUOUS
 62
          15
100
AcDbLine
 10
30.605936050415
 20
106.170539855957
 30
0.0
 11
30.605936050415
 21
113.986381530762
 31
0.0
  0
LINE
  5
D1
100
AcDbEntity
  8
0
  6
CONTINUOUS
 62
          15
100
AcDbLine
 10
30.605936050415
 20
57.795963287354
 30
0.0
 11
30.605936050415
 21
106.170539855957
 31
0.0
  0
LINE
  5
D2
100
AcDbEntity
  8
0
  6
CONTINUOUS
 62
          15
100
AcDbLine
 10
33.448795318604
 20
106.170539855957
 30
0.0
 11
33.448795318604
 21
113.986381530762
 31
0.0
  0
LINE
  5
D3
100
AcDbEntity
  8
0
  6
CONTINUOUS
 62
          15
100
AcDbLine
 10
33.448795318604
 20
59.795963287354
 30
0.0
 11
33.448795318604
 21
106.170539855957
 31
0.0
  0
LINE
  5
D4
100
AcDbEntity
  8
0
  6
CONTINUOUS
 62
          15
100
AcDbLine
 10
36.413928985596
 20
106.170539855957
 30
0.0
 11
36.413928985596
 21
113.986381530762
 31
0.0
  0
LINE
  5
D5
100
AcDbEntity
  8
0
  6
CONTINUOUS
 62
          15
100
AcDbLine
 10
39.470767974854
 20
106.170539855957
 30
0.0
 11
39.470767974854
 21
113.986381530762
 31
0.0
  0
LINE
  5
D6
100
AcDbEntity
  8
0
  6
CONTINUOUS
 62
          15
100
AcDbLine
 10
39.470767974854
 20
63.795963287354
 30
0.0
 11
39.470767974854
 21
106.170539855957
 31
0.0
  0
LINE
  5
D7
100
AcDbEntity
  8
0
  6
CONTINUOUS
 62
          15
100
AcDbLine
 10
89.324005126953
 20
108.548927307129
 30
0.0
 11
89.324005126953
 21
114.587844848633
 31
0.0
  0
LINE
  5
D8
100
AcDbEntity
  8
0
  6
CONTINUOUS
 62
          15
100
AcDbLine
 10
89.324005126953
 20
101.419868469238
 30
0.0
 11
89.324005126953
 21
108.548927307129
 31
0.0
  0
LINE
  5
D9
100
AcDbEntity
  8
0
  6
CONTINUOUS
 62
          15
100
AcDbLine
 10
92.166870117188
 20
108.548927307129
 30
0.0
 11
92.166870117188
 21
114.587844848633
 31
0.0
  0
LINE
  5
DA
100
AcDbEntity
  8
0
  6
CONTINUOUS
 62
          15
100
AcDbLine
 10
92.166870117188
 20
100.038269042969
 30
0.0
 11
92.166870117188
 21
108.548927307129
 31
0.0
  0
LINE
  5
DB
100
AcDbEntity
  8
0
  6
CONTINUOUS
 62
          15
100
AcDbLine
 10
95.13200378418
 20
108.548919677734
 30
0.0
 11
95.13200378418
 21
114.587844848633
 31
0.0
  0
LINE
  5
DC
100
AcDbEntity
  8
0
  6
CONTINUOUS
 62
          15
100
AcDbLine
 10
95.13200378418
 20
98.378074645996
 30
0.0
 11
95.13200378418
 21
108.548919677734
 31
0.0
  0
LINE
  5
DD
100
AcDbEntity
  8
0
  6
CONTINUOUS
 62
          15
100
AcDbLine
 10
200.126693725586
 20
102.055923461914
 30
0.0
 11
203.572967529297
 21
102.055923461914
 31
0.0
  0
LINE
  5
DE
100
AcDbEntity
  8
0
  6
CONTINUOUS
 62
          15
100
AcDbLine
 10
200.641647338867
 20
101.382797241211
 30
0.0
 11
202.939178466797
 21
101.382797241211
 31
0.0
  0
LINE
  5
DF
100
AcDbEntity
  8
0
  6
CONTINUOUS
 62
          15
100
AcDbLine
 10
201.156631469727
 20
100.709671020508
 30
0.0
 11
202.305374145508
 21
100.709671020508
 31
0.0
  0
LINE
  5
E0
100
AcDbEntity
  8
0
  6
CONTINUOUS
 62
          15
100
AcDbLine
 10
201.671585083008
 20
104.035194396973
 30
0.0
 11
201.671585083008
 21
102.055923461914
 31
0.0
  0
LINE
  5
E1
100
AcDbEntity
  8
0
  6
CONTINUOUS
 62
          15
100
AcDbLine
 10
199.322830200195
 20
97.85107421875
 30
0.0
 11
199.322830200195
 21
104.035194396973
 31
0.0
  0
LINE
  5
E2
100
AcDbEntity
  8
0
  6
CONTINUOUS
 62
          15
100
AcDbLine
 10
199.322830200195
 20
104.035194396973
 30
0.0
 11
201.671585083008
 21
104.035194396973
 31
0.0
  0
LINE
  5
E3
100
AcDbEntity
  8
0
  6
CONTINUOUS
 62
          15
100
AcDbLine
 10
151.040176391602
 20
105.207252502441
 30
0.0
 11
151.040176391602
 21
122.223365783691
 31
0.0
  0
LINE
  5
E4
100
AcDbEntity
  8
0
  6
CONTINUOUS
 62
          15
100
AcDbLine
 10
215.302169799805
 20
124.844421386719
 30
0.0
 11
215.302169799805
 21
105.207252502441
 31
0.0
  0
LINE
  5
E5
100
AcDbEntity
  8
0
  6
CONTINUOUS
 62
          15
100
AcDbLine
 10
215.302169799805
 20
105.207252502441
 30
0.0
 11
151.040176391602
 21
105.207252502441
 31
0.0
  0
LINE
  5
E6
100
AcDbEntity
  8
0
  6
CONTINUOUS
 62
          15
100
AcDbLine
 10
194.905960083008
 20
130.492950439453
 30
0.0
 11
194.905960083008
 21
124.904945373535
 31
0.0
  0
LINE
  5
E7
100
AcDbEntity
  8
0
  6
CONTINUOUS
 62
          15
100
AcDbLine
 10
194.905960083008
 20
130.492950439453
 30
0.0
 11
192.111968994141
 21
130.492950439453
 31
0.0
  0
LINE
  5
E8
100
AcDbEntity
  8
0
  6
CONTINUOUS
 62
          15
100
AcDbLine
 10
192.111968994141
 20
124.904945373535
 30
0.0
 11
192.111968994141
 21
130.492950439453
 31
0.0
  0
LINE
  5
E9
100
AcDbEntity
  8
0
  6
CONTINUOUS
 62
          15
100
AcDbLine
 10
192.111968994141
 20
124.904945373535
 30
0.0
 11
194.905960083008
 21
124.904945373535
 31
0.0
  0
LINE
  5
EA
100
AcDbEntity
  8
0
  6
CONTINUOUS
 62
          15
100
AcDbLine
 10
194.905960083008
 20
129.095947265625
 30
0.0
 11
192.111968994141
 21
129.095947265625
 31
0.0
  0
LINE
  5
EB
100
AcDbEntity
  8
0
  6
CONTINUOUS
 62
          15
100
AcDbLine
 10
210.69206237793
 20
126.581352233887
 30
0.0
 11
202.310073852539
 21
126.581352233887
 31
0.0
  0
LINE
  5
EC
100
AcDbEntity
  8
0
  6
CONTINUOUS
 62
          15
100
AcDbLine
 10
210.69206237793
 20
126.581352233887
 30
0.0
 11
210.69206237793
 21
119.875747680664
 31
0.0
  0
LINE
  5
ED
100
AcDbEntity
  8
0
  6
CONTINUOUS
 62
          15
100
AcDbLine
 10
202.310073852539
 20
119.875747680664
 30
0.0
 11
210.69206237793
 21
119.875747680664
 31
0.0
  0
LINE
  5
EE
100
AcDbEntity
  8
0
  6
CONTINUOUS
 62
          15
100
AcDbLine
 10
202.310073852539
 20
119.875747680664
 30
0.0
 11
202.310073852539
 21
126.581352233887
 31
0.0
  0
LINE
  5
EF
100
AcDbEntity
  8
0
  6
CONTINUOUS
 62
          15
100
AcDbLine
 10
183.338806152344
 20
123.368255615234
 30
0.0
 11
183.338806152344
 21
126.162246704102
 31
0.0
  0
LINE
  5
F0
100
AcDbEntity
  8
0
  6
CONTINUOUS
 62
          15
100
AcDbLine
 10
183.338806152344
 20
123.368255615234
 30
0.0
 11
181.941802978516
 21
123.368255615234
 31
0.0
  0
LINE
  5
F1
100
AcDbEntity
  8
0
  6
CONTINUOUS
 62
          15
100
AcDbLine
 10
181.941802978516
 20
126.162246704102
 30
0.0
 11
181.941802978516
 21
123.368255615234
 31
0.0
  0
LINE
  5
F2
100
AcDbEntity
  8
0
  6
CONTINUOUS
 62
          15
100
AcDbLine
 10
181.941802978516
 20
126.162246704102
 30
0.0
 11
183.338806152344
 21
126.162246704102
 31
0.0
  0
LINE
  5
F3
100
AcDbEntity
  8
0
  6
CONTINUOUS
 62
          15
100
AcDbLine
 10
182.640319824219
 20
126.162246704102
 30
0.0
 11
182.640319824219
 21
126.511497497559
 31
0.0
  0
LINE
  5
F4
100
AcDbEntity
  8
0
  6
CONTINUOUS
 62
          15
100
AcDbLine
 10
182.640319824219
 20
126.162246704102
 30
0.0
 11
182.640319824219
 21
126.162246704102
 31
0.0
  0
LINE
  5
F5
100
AcDbEntity
  8
0
  6
CONTINUOUS
 62
          15
100
AcDbLine
 10
182.640319824219
 20
126.511497497559
 30
0.0
 11
182.640319824219
 21
126.162246704102
 31
0.0
  0
LINE
  5
F6
100
AcDbEntity
  8
0
  6
CONTINUOUS
 62
          15
100
AcDbLine
 10
182.640319824219
 20
126.511497497559
 30
0.0
 11
182.640319824219
 21
126.511497497559
 31
0.0
  0
LINE
  5
F7
100
AcDbEntity
  8
0
  6
CONTINUOUS
 62
          15
100
AcDbLine
 10
182.640319824219
 20
123.018997192383
 30
0.0
 11
182.640319824219
 21
123.368255615234
 31
0.0
  0
LINE
  5
F8
100
AcDbEntity
  8
0
  6
CONTINUOUS
 62
          15
100
AcDbLine
 10
182.640319824219
 20
123.018997192383
 30
0.0
 11
182.640319824219
 21
123.018997192383
 31
0.0
  0
LINE
  5
F9
100
AcDbEntity
  8
0
  6
CONTINUOUS
 62
          15
100
AcDbLine
 10
182.640319824219
 20
123.368255615234
 30
0.0
 11
182.640319824219
 21
123.018997192383
 31
0.0
  0
LINE
  5
FA
100
AcDbEntity
  8
0
  6
CONTINUOUS
 62
          15
100
AcDbLine
 10
182.640319824219
 20
123.368255615234
 30
0.0
 11
182.640319824219
 21
123.368255615234
 31
0.0
  0
LINE
  5
FB
100
AcDbEntity
  8
0
  6
CONTINUOUS
 62
          15
100
AcDbLine
 10
183.338806152344
 20
124.066749572754
 30
0.0
 11
181.941802978516
 21
124.066749572754
 31
0.0
  0
LINE
  5
FC
100
AcDbEntity
  8
0
  6
CONTINUOUS
 62
          15
100
AcDbLine
 10
186.747497558594
 20
123.368255615234
 30
0.0
 11
186.747497558594
 21
126.162246704102
 31
0.0
  0
LINE
  5
FD
100
AcDbEntity
  8
0
  6
CONTINUOUS
 62
          15
100
AcDbLine
 10
186.747497558594
 20
123.368255615234
 30
0.0
 11
185.350479125977
 21
123.368255615234
 31
0.0
  0
LINE
  5
FE
100
AcDbEntity
  8
0
  6
CONTINUOUS
 62
          15
100
AcDbLine
 10
185.350479125977
 20
126.162246704102
 30
0.0
 11
185.350479125977
 21
123.368255615234
 31
0.0
  0
LINE
  5
FF
100
AcDbEntity
  8
0
  6
CONTINUOUS
 62
          15
100
AcDbLine
 10
185.350479125977
 20
126.162246704102
 30
0.0
 11
186.747497558594
 21
126.162246704102
 31
0.0
  0
LINE
  5
100
100
AcDbEntity
  8
0
  6
CONTINUOUS
 62
          15
100
AcDbLine
 10
186.04899597168
 20
126.162246704102
 30
0.0
 11
186.04899597168
 21
126.511497497559
 31
0.0
  0
LINE
  5
101
100
AcDbEntity
  8
0
  6
CONTINUOUS
 62
          15
100
AcDbLine
 10
186.04899597168
 20
126.162246704102
 30
0.0
 11
186.04899597168
 21
126.162246704102
 31
0.0
  0
LINE
  5
102
100
AcDbEntity
  8
0
  6
CONTINUOUS
 62
          15
100
AcDbLine
 10
186.04899597168
 20
126.511497497559
 30
0.0
 11
186.04899597168
 21
126.162246704102
 31
0.0
  0
LINE
  5
103
100
AcDbEntity
  8
0
  6
CONTINUOUS
 62
          15
100
AcDbLine
 10
186.04899597168
 20
126.511497497559
 30
0.0
 11
186.04899597168
 21
126.511497497559
 31
0.0
  0
LINE
  5
104
100
AcDbEntity
  8
0
  6
CONTINUOUS
 62
          15
100
AcDbLine
 10
186.04899597168
 20
123.018997192383
 30
0.0
 11
186.04899597168
 21
123.368255615234
 31
0.0
  0
LINE
  5
105
100
AcDbEntity
  8
0
  6
CONTINUOUS
 62
          15
100
AcDbLine
 10
186.04899597168
 20
123.018997192383
 30
0.0
 11
186.04899597168
 21
123.018997192383
 31
0.0
  0
LINE
  5
106
100
AcDbEntity
  8
0
  6
CONTINUOUS
 62
          15
100
AcDbLine
 10
186.04899597168
 20
123.368255615234
 30
0.0
 11
186.04899597168
 21
123.018997192383
 31
0.0
  0
LINE
  5
107
100
AcDbEntity
  8
0
  6
CONTINUOUS
 62
          15
100
AcDbLine
 10
186.04899597168
 20
123.368255615234
 30
0.0
 11
186.04899597168
 21
123.368255615234
 31
0.0
  0
LINE
  5
108
100
AcDbEntity
  8
0
  6
CONTINUOUS
 62
          15
100
AcDbLine
 10
186.747497558594
 20
124.066749572754
 30
0.0
 11
185.350479125977
 21
124.066749572754
 31
0.0
  0
LINE
  5
109
100
AcDbEntity
  8
0
  6
CONTINUOUS
 62
          15
100
AcDbLine
 10
187.445983886719
 20
126.162246704102
 30
0.0
 11
187.445983886719
 21
123.368255615234
 31
0.0
  0
LINE
  5
10A
100
AcDbEntity
  8
0
  6
CONTINUOUS
 62
          15
100
AcDbLine
 10
187.445983886719
 20
126.162246704102
 30
0.0
 11
188.842987060547
 21
126.162246704102
 31
0.0
  0
LINE
  5
10B
100
AcDbEntity
  8
0
  6
CONTINUOUS
 62
          15
100
AcDbLine
 10
188.842987060547
 20
123.368255615234
 30
0.0
 11
188.842987060547
 21
126.162246704102
 31
0.0
  0
LINE
  5
10C
100
AcDbEntity
  8
0
  6
CONTINUOUS
 62
          15
100
AcDbLine
 10
188.842987060547
 20
123.368255615234
 30
0.0
 11
187.445983886719
 21
123.368255615234
 31
0.0
  0
LINE
  5
10D
100
AcDbEntity
  8
0
  6
CONTINUOUS
 62
          15
100
AcDbLine
 10
188.144500732422
 20
123.368255615234
 30
0.0
 11
188.144500732422
 21
123.018997192383
 31
0.0
  0
LINE
  5
10E
100
AcDbEntity
  8
0
  6
CONTINUOUS
 62
          15
100
AcDbLine
 10
188.144500732422
 20
123.368255615234
 30
0.0
 11
188.144500732422
 21
123.368255615234
 31
0.0
  0
LINE
  5
10F
100
AcDbEntity
  8
0
  6
CONTINUOUS
 62
          15
100
AcDbLine
 10
188.144500732422
 20
123.018997192383
 30
0.0
 11
188.144500732422
 21
123.368255615234
 31
0.0
  0
LINE
  5
110
100
AcDbEntity
  8
0
  6
CONTINUOUS
 62
          15
100
AcDbLine
 10
188.144500732422
 20
123.018997192383
 30
0.0
 11
188.144500732422
 21
123.018997192383
 31
0.0
  0
LINE
  5
111
100
AcDbEntity
  8
0
  6
CONTINUOUS
 62
          15
100
AcDbLine
 10
188.144500732422
 20
126.511497497559
 30
0.0
 11
188.144500732422
 21
126.162246704102
 31
0.0
  0
LINE
  5
112
100
AcDbEntity
  8
0
  6
CONTINUOUS
 62
          15
100
AcDbLine
 10
188.144500732422
 20
126.511497497559
 30
0.0
 11
188.144500732422
 21
126.511497497559
 31
0.0
  0
LINE
  5
113
100
AcDbEntity
  8
0
  6
CONTINUOUS
 62
          15
100
AcDbLine
 10
188.144500732422
 20
126.162246704102
 30
0.0
 11
188.144500732422
 21
126.511497497559
 31
0.0
  0
LINE
  5
114
100
AcDbEntity
  8
0
  6
CONTINUOUS
 62
          15
100
AcDbLine
 10
188.144500732422
 20
126.162246704102
 30
0.0
 11
188.144500732422
 21
126.162246704102
 31
0.0
  0
LINE
  5
115
100
AcDbEntity
  8
0
  6
CONTINUOUS
 62
          15
100
AcDbLine
 10
187.445983886719
 20
125.463752746582
 30
0.0
 11
188.842987060547
 21
125.463752746582
 31
0.0
  0
LINE
  5
116
100
AcDbEntity
  8
0
  6
CONTINUOUS
 62
          15
100
AcDbLine
 10
157.410491943359
 20
115.964149475098
 30
0.0
 11
164.395477294922
 21
115.964149475098
 31
0.0
  0
LINE
  5
117
100
AcDbEntity
  8
0
  6
CONTINUOUS
 62
          15
100
AcDbLine
 10
157.410491943359
 20
115.964149475098
 30
0.0
 11
157.410491943359
 21
127.108024597168
 31
0.0
  0
LINE
  5
118
100
AcDbEntity
  8
0
  6
CONTINUOUS
 62
          15
100
AcDbLine
 10
164.395477294922
 20
130.153793334961
 30
0.0
 11
164.395477294922
 21
115.964149475098
 31
0.0
  0
LINE
  5
119
100
AcDbEntity
  8
0
  6
CONTINUOUS
 62
          15
100
AcDbLine
 10
199.516067504883
 20
127.838645935059
 30
0.0
 11
210.69206237793
 21
127.838645935059
 31
0.0
  0
LINE
  5
11A
100
AcDbEntity
  8
0
  6
CONTINUOUS
 62
          15
100
AcDbLine
 10
199.516067504883
 20
127.838645935059
 30
0.0
 11
199.516067504883
 21
131.641235351563
 31
0.0
  0
LINE
  5
11B
100
AcDbEntity
  8
0
  6
CONTINUOUS
 62
          15
100
AcDbLine
 10
198.705810546875
 20
112.192245483398
 30
0.0
 11
213.905166625977
 21
112.192245483398
 31
0.0
  0
LINE
  5
11C
100
AcDbEntity
  8
0
  6
CONTINUOUS
 62
          15
100
AcDbLine
 10
198.705810546875
 20
112.192245483398
 30
0.0
 11
198.705810546875
 21
131.819427490234
 31
0.0
  0
LINE
  5
11D
100
AcDbEntity
  8
0
  6
CONTINUOUS
 62
          15
100
AcDbLine
 10
213.905166625977
 20
125.838394165039
 30
0.0
 11
213.905166625977
 21
112.192245483398
 31
0.0
  0
ARC
  5
11E
100
AcDbEntity
  8
0
  6
CONTINUOUS
 62
          15
100
AcDbCircle
 10
206.221664428711
 20
111.493743896484
 30
0.0
 40
5.420360088348
100
AcDbArc
 50
224.999999658377
 51
315.000002162855
  0
LINE
  5
11F
100
AcDbEntity
  8
0
  6
CONTINUOUS
 62
          15
100
AcDbLine
 10
197.83967590332
 20
111.326110839844
 30
0.0
 11
214.785278320313
 21
111.326110839844
 31
0.0
  0
LINE
  5
120
100
AcDbEntity
  8
0
  6
CONTINUOUS
 62
          15
100
AcDbLine
 10
197.83967590332
 20
111.326110839844
 30
0.0
 11
197.83967590332
 21
131.997100830078
 31
0.0
  0
LINE
  5
121
100
AcDbEntity
  8
0
  6
CONTINUOUS
 62
          15
100
AcDbLine
 10
214.785278320313
 20
125.227920532227
 30
0.0
 11
214.785278320313
 21
111.326110839844
 31
0.0
  0
ARC
  5
122
100
AcDbEntity
  8
0
  6
CONTINUOUS
 62
          15
100
AcDbCircle
 10
193.117813110352
 20
100.834632873535
 30
0.0
 40
11.525250434875
100
AcDbArc
 50
36.249996170697
 51
65.750003252616
  0
ARC
  5
123
100
AcDbEntity
  8
0
  6
CONTINUOUS
 62
          15
100
AcDbCircle
 10
219.143920898438
 20
100.834632873535
 30
0.0
 40
11.35760974884
100
AcDbArc
 50
112.500011668334
 51
142.999996010783
  0
LINE
  5
124
100
AcDbEntity
  8
0
  6
CONTINUOUS
 62
          15
100
AcDbLine
 10
164.758697509766
 20
112.820899963379
 30
0.0
 11
172.973068237305
 21
112.820899963379
 31
0.0
  0
LINE
  5
125
100
AcDbEntity
  8
0
  6
CONTINUOUS
 62
          15
100
AcDbLine
 10
164.758697509766
 20
112.820899963379
 30
0.0
 11
164.758697509766
 21
121.035263061523
 31
0.0
  0
LINE
  5
126
100
AcDbEntity
  8
0
  6
CONTINUOUS
 62
          15
100
AcDbLine
 10
172.973068237305
 20
121.035263061523
 30
0.0
 11
164.758697509766
 21
121.035263061523
 31
0.0
  0
LINE
  5
127
100
AcDbEntity
  8
0
  6
CONTINUOUS
 62
          15
100
AcDbLine
 10
172.973068237305
 20
121.035263061523
 30
0.0
 11
172.973068237305
 21
112.820899963379
 31
0.0
  0
LINE
  5
128
100
AcDbEntity
  8
0
  6
CONTINUOUS
 62
          15
100
AcDbLine
 10
173.014984130859
 20
112.820899963379
 30
0.0
 11
181.229339599609
 21
112.820899963379
 31
0.0
  0
LINE
  5
129
100
AcDbEntity
  8
0
  6
CONTINUOUS
 62
          15
100
AcDbLine
 10
173.014984130859
 20
112.820899963379
 30
0.0
 11
173.014984130859
 21
121.035263061523
 31
0.0
  0
LINE
  5
12A
100
AcDbEntity
  8
0
  6
CONTINUOUS
 62
          15
100
AcDbLine
 10
181.229339599609
 20
121.035263061523
 30
0.0
 11
173.014984130859
 21
121.035263061523
 31
0.0
  0
LINE
  5
12B
100
AcDbEntity
  8
0
  6
CONTINUOUS
 62
          15
100
AcDbLine
 10
181.229339599609
 20
121.035263061523
 30
0.0
 11
181.229339599609
 21
112.820899963379
 31
0.0
  0
LINE
  5
12C
100
AcDbEntity
  8
0
  6
CONTINUOUS
 62
          15
100
AcDbLine
 10
178.602981567383
 20
123.046936035156
 30
0.0
 11
178.602981567383
 21
128.816543579102
 31
0.0
  0
LINE
  5
12D
100
AcDbEntity
  8
0
  6
CONTINUOUS
 62
          15
100
AcDbLine
 10
178.602981567383
 20
123.046936035156
 30
0.0
 11
167.077728271484
 21
123.046936035156
 31
0.0
  0
LINE
  5
12E
100
AcDbEntity
  8
0
  6
CONTINUOUS
 62
          15
100
AcDbLine
 10
167.077728271484
 20
128.816543579102
 30
0.0
 11
167.077728271484
 21
123.046936035156
 31
0.0
  0
LINE
  5
12F
100
AcDbEntity
  8
0
  6
CONTINUOUS
 62
          15
100
AcDbLine
 10
167.077728271484
 20
128.816543579102
 30
0.0
 11
178.602981567383
 21
128.816543579102
 31
0.0
  0
LINE
  5
130
100
AcDbEntity
  8
0
  6
CONTINUOUS
 62
          15
100
AcDbLine
 10
166.46305847168
 20
126.106369018555
 30
0.0
 11
166.46305847168
 21
126.874717712402
 31
0.0
  0
LINE
  5
131
100
AcDbEntity
  8
0
  6
CONTINUOUS
 62
          15
100
AcDbLine
 10
166.46305847168
 20
129.948120117188
 30
0.0
 11
166.46305847168
 21
129.179763793945
 31
0.0
  0
LINE
  5
132
100
AcDbEntity
  8
0
  6
CONTINUOUS
 62
          15
100
AcDbLine
 10
165.904251098633
 20
129.179763793945
 30
0.0
 11
165.904251098633
 21
126.874717712402
 31
0.0
  0
LINE
  5
133
100
AcDbEntity
  8
0
  6
CONTINUOUS
 62
          15
100
AcDbLine
 10
165.904251098633
 20
129.179763793945
 30
0.0
 11
167.021850585938
 21
129.179763793945
 31
0.0
  0
LINE
  5
134
100
AcDbEntity
  8
0
  6
CONTINUOUS
 62
          15
100
AcDbLine
 10
167.021850585938
 20
126.874717712402
 30
0.0
 11
167.021850585938
 21
129.179763793945
 31
0.0
  0
LINE
  5
135
100
AcDbEntity
  8
0
  6
CONTINUOUS
 62
          15
100
AcDbLine
 10
167.021850585938
 20
126.874717712402
 30
0.0
 11
165.904251098633
 21
126.874717712402
 31
0.0
  0
LINE
  5
136
100
AcDbEntity
  8
0
  6
CONTINUOUS
 62
          15
100
AcDbLine
 10
167.021850585938
 20
128.620971679688
 30
0.0
 11
165.904251098633
 21
128.620971679688
 31
0.0
  0
LINE
  5
137
100
AcDbEntity
  8
0
  6
CONTINUOUS
 62
          15
100
AcDbLine
 10
167.021850585938
 20
128.411422729492
 30
0.0
 11
165.904251098633
 21
128.411422729492
 31
0.0
  0
LINE
  5
138
100
AcDbEntity
  8
0
  6
CONTINUOUS
 62
          15
100
AcDbLine
 10
181.271255493164
 20
112.820899963379
 30
0.0
 11
189.485610961914
 21
112.820899963379
 31
0.0
  0
LINE
  5
139
100
AcDbEntity
  8
0
  6
CONTINUOUS
 62
          15
100
AcDbLine
 10
181.271255493164
 20
112.820899963379
 30
0.0
 11
181.271255493164
 21
121.035263061523
 31
0.0
  0
LINE
  5
13A
100
AcDbEntity
  8
0
  6
CONTINUOUS
 62
          15
100
AcDbLine
 10
189.485610961914
 20
121.035263061523
 30
0.0
 11
181.271255493164
 21
121.035263061523
 31
0.0
  0
LINE
  5
13B
100
AcDbEntity
  8
0
  6
CONTINUOUS
 62
          15
100
AcDbLine
 10
189.485610961914
 20
121.035263061523
 30
0.0
 11
189.485610961914
 21
112.820899963379
 31
0.0
  0
LINE
  5
13C
100
AcDbEntity
  8
0
  6
CONTINUOUS
 62
          15
100
AcDbLine
 10
189.52751159668
 20
112.820899963379
 30
0.0
 11
197.741882324219
 21
112.820899963379
 31
0.0
  0
LINE
  5
13D
100
AcDbEntity
  8
0
  6
CONTINUOUS
 62
          15
100
AcDbLine
 10
189.52751159668
 20
112.820899963379
 30
0.0
 11
189.52751159668
 21
121.035263061523
 31
0.0
  0
LINE
  5
13E
100
AcDbEntity
  8
0
  6
CONTINUOUS
 62
          15
100
AcDbLine
 10
197.741882324219
 20
121.035263061523
 30
0.0
 11
189.52751159668
 21
121.035263061523
 31
0.0
  0
LINE
  5
13F
100
AcDbEntity
  8
0
  6
CONTINUOUS
 62
          15
100
AcDbLine
 10
197.741882324219
 20
121.035263061523
 30
0.0
 11
197.741882324219
 21
112.820899963379
 31
0.0
  0
LINE
  5
140
100
AcDbEntity
  8
0
  6
CONTINUOUS
 62
          15
100
AcDbLine
 10
202.505645751953
 20
116.802352905273
 30
0.0
 11
200.298385620117
 21
116.802352905273
 31
0.0
  0
LINE
  5
141
100
AcDbEntity
  8
0
  6
CONTINUOUS
 62
          15
100
AcDbLine
 10
200.298385620117
 20
116.802352905273
 30
0.0
 11
199.208724975586
 21
114.874488830566
 31
0.0
  0
LINE
  5
142
100
AcDbEntity
  8
0
  6
CONTINUOUS
 62
          15
100
AcDbLine
 10
199.208724975586
 20
114.874488830566
 30
0.0
 11
200.298385620117
 21
112.946624755859
 31
0.0
  0
LINE
  5
143
100
AcDbEntity
  8
0
  6
CONTINUOUS
 62
          15
100
AcDbLine
 10
200.298385620117
 20
112.946624755859
 30
0.0
 11
202.505645751953
 21
112.946624755859
 31
0.0
  0
LINE
  5
144
100
AcDbEntity
  8
0
  6
CONTINUOUS
 62
          15
100
AcDbLine
 10
202.505645751953
 20
112.946624755859
 30
0.0
 11
203.595306396484
 21
114.874488830566
 31
0.0
  0
LINE
  5
145
100
AcDbEntity
  8
0
  6
CONTINUOUS
 62
          15
100
AcDbLine
 10
203.595306396484
 20
114.874488830566
 30
0.0
 11
202.505645751953
 21
116.802352905273
 31
0.0
  0
CIRCLE
  5
146
100
AcDbEntity
  8
0
  6
CONTINUOUS
 62
          15
100
AcDbCircle
 10
201.40202331543
 20
114.874488830566
 30
0.0
 40
2.472690105438
  0
LINE
  5
147
100
AcDbEntity
  8
0
  6
CONTINUOUS
 62
          15
100
AcDbLine
 10
160.763290405273
 20
114.231872558594
 30
0.0
 11
160.763290405273
 21
114.231872558594
 31
0.0
  0
LINE
  5
148
100
AcDbEntity
  8
0
  6
CONTINUOUS
 62
          15
100
AcDbLine
 10
160.763290405273
 20
114.231872558594
 30
0.0
 11
160.763290405273
 21
115.628868103027
 31
0.0
  0
LINE
  5
149
100
AcDbEntity
  8
0
  6
CONTINUOUS
 62
          15
100
AcDbLine
 10
160.763290405273
 20
115.628868103027
 30
0.0
 11
160.763290405273
 21
115.628868103027
 31
0.0
  0
LINE
  5
14A
100
AcDbEntity
  8
0
  6
CONTINUOUS
 62
          15
100
AcDbLine
 10
160.763290405273
 20
115.628868103027
 30
0.0
 11
160.763290405273
 21
114.231872558594
 31
0.0
  0
LINE
  5
14B
100
AcDbEntity
  8
0
  6
CONTINUOUS
 62
          15
100
AcDbLine
 10
161.112533569336
 20
114.930366516113
 30
0.0
 11
161.461791992188
 21
114.930366516113
 31
0.0
  0
LINE
  5
14C
100
AcDbEntity
  8
0
  6
CONTINUOUS
 62
          15
100
AcDbLine
 10
161.112533569336
 20
114.930366516113
 30
0.0
 11
161.112533569336
 21
114.930366516113
 31
0.0
  0
LINE
  5
14D
100
AcDbEntity
  8
0
  6
CONTINUOUS
 62
          15
100
AcDbLine
 10
161.461791992188
 20
114.930366516113
 30
0.0
 11
161.112533569336
 21
114.930366516113
 31
0.0
  0
LINE
  5
14E
100
AcDbEntity
  8
0
  6
CONTINUOUS
 62
          15
100
AcDbLine
 10
161.461791992188
 20
114.930366516113
 30
0.0
 11
161.461791992188
 21
114.930366516113
 31
0.0
  0
LINE
  5
14F
100
AcDbEntity
  8
0
  6
CONTINUOUS
 62
          15
100
AcDbLine
 10
160.763290405273
 20
114.930366516113
 30
0.0
 11
160.414047241211
 21
114.930366516113
 31
0.0
  0
LINE
  5
150
100
AcDbEntity
  8
0
  6
CONTINUOUS
 62
          15
100
AcDbLine
 10
160.763290405273
 20
114.930366516113
 30
0.0
 11
160.763290405273
 21
114.930366516113
 31
0.0
  0
LINE
  5
151
100
AcDbEntity
  8
0
  6
CONTINUOUS
 62
          15
100
AcDbLine
 10
160.414047241211
 20
114.930366516113
 30
0.0
 11
160.763290405273
 21
114.930366516113
 31
0.0
  0
LINE
  5
152
100
AcDbEntity
  8
0
  6
CONTINUOUS
 62
          15
100
AcDbLine
 10
160.414047241211
 20
114.930366516113
 30
0.0
 11
160.414047241211
 21
114.930366516113
 31
0.0
  0
LINE
  5
153
100
AcDbEntity
  8
0
  6
CONTINUOUS
 62
          15
100
AcDbLine
 10
161.112533569336
 20
115.628868103027
 30
0.0
 11
161.112533569336
 21
114.231872558594
 31
0.0
  0
LINE
  5
154
100
AcDbEntity
  8
0
  6
CONTINUOUS
 62
          15
100
AcDbLine
 10
195.744171142578
 20
122.809448242188
 30
0.0
 11
195.744171142578
 21
122.809448242188
 31
0.0
  0
LINE
  5
155
100
AcDbEntity
  8
0
  6
CONTINUOUS
 62
          15
100
AcDbLine
 10
195.744171142578
 20
122.809448242188
 30
0.0
 11
195.744171142578
 21
121.412445068359
 31
0.0
  0
LINE
  5
156
100
AcDbEntity
  8
0
  6
CONTINUOUS
 62
          15
100
AcDbLine
 10
195.744171142578
 20
121.412445068359
 30
0.0
 11
195.744171142578
 21
121.412445068359
 31
0.0
  0
LINE
  5
157
100
AcDbEntity
  8
0
  6
CONTINUOUS
 62
          15
100
AcDbLine
 10
195.744171142578
 20
121.412445068359
 30
0.0
 11
195.744171142578
 21
122.809448242188
 31
0.0
  0
LINE
  5
158
100
AcDbEntity
  8
0
  6
CONTINUOUS
 62
          15
100
AcDbLine
 10
195.045684814453
 20
122.809448242188
 30
0.0
 11
195.045684814453
 21
122.809448242188
 31
0.0
  0
LINE
  5
159
100
AcDbEntity
  8
0
  6
CONTINUOUS
 62
          15
100
AcDbLine
 10
195.045684814453
 20
122.809448242188
 30
0.0
 11
195.045684814453
 21
121.412445068359
 31
0.0
  0
LINE
  5
15A
100
AcDbEntity
  8
0
  6
CONTINUOUS
 62
          15
100
AcDbLine
 10
195.045684814453
 20
121.412445068359
 30
0.0
 11
195.045684814453
 21
121.412445068359
 31
0.0
  0
LINE
  5
15B
100
AcDbEntity
  8
0
  6
CONTINUOUS
 62
          15
100
AcDbLine
 10
195.045684814453
 20
121.412445068359
 30
0.0
 11
195.045684814453
 21
122.809448242188
 31
0.0
  0
LINE
  5
15C
100
AcDbEntity
  8
0
  6
CONTINUOUS
 62
          15
100
AcDbLine
 10
196.09342956543
 20
122.110946655273
 30
0.0
 11
195.744171142578
 21
122.110946655273
 31
0.0
  0
LINE
  5
15D
100
AcDbEntity
  8
0
  6
CONTINUOUS
 62
          15
100
AcDbLine
 10
196.09342956543
 20
122.110946655273
 30
0.0
 11
196.09342956543
 21
122.110946655273
 31
0.0
  0
LINE
  5
15E
100
AcDbEntity
  8
0
  6
CONTINUOUS
 62
          15
100
AcDbLine
 10
195.744171142578
 20
122.110946655273
 30
0.0
 11
196.09342956543
 21
122.110946655273
 31
0.0
  0
LINE
  5
15F
100
AcDbEntity
  8
0
  6
CONTINUOUS
 62
          15
100
AcDbLine
 10
195.744171142578
 20
122.110946655273
 30
0.0
 11
195.744171142578
 21
122.110946655273
 31
0.0
  0
LINE
  5
160
100
AcDbEntity
  8
0
  6
CONTINUOUS
 62
          15
100
AcDbLine
 10
195.045684814453
 20
122.110946655273
 30
0.0
 11
194.696426391602
 21
122.110946655273
 31
0.0
  0
LINE
  5
161
100
AcDbEntity
  8
0
  6
CONTINUOUS
 62
          15
100
AcDbLine
 10
195.045684814453
 20
122.110946655273
 30
0.0
 11
195.045684814453
 21
122.110946655273
 31
0.0
  0
LINE
  5
162
100
AcDbEntity
  8
0
  6
CONTINUOUS
 62
          15
100
AcDbLine
 10
194.696426391602
 20
122.110946655273
 30
0.0
 11
195.045684814453
 21
122.110946655273
 31
0.0
  0
LINE
  5
163
100
AcDbEntity
  8
0
  6
CONTINUOUS
 62
          15
100
AcDbLine
 10
194.696426391602
 20
122.110946655273
 30
0.0
 11
194.696426391602
 21
122.110946655273
 31
0.0
  0
TEXT
  5
164
100
AcDbEntity
  8
0
  6
CONTINUOUS
 62
          15
100
AcDbText
 10
190.295867905633
 20
110.515847608447
 30
0.0
 40
1.089660048485
  1
1
 50
0.000002504478
 41
0.999999931625
  7
TXT
100
AcDbText
  0
TEXT
  5
165
100
AcDbEntity
  8
0
  6
CONTINUOUS
 62
          15
100
AcDbText
 10
188.759170517937
 20
107.582147046924
 30
0.0
 40
1.089660048485
  1
SIGNALS
 50
0.000002504478
 41
1.037037026907
  7
TXT
100
AcDbText
  0
TEXT
  5
166
100
AcDbEntity
  8
0
  6
CONTINUOUS
 62
          15
100
AcDbText
 10
187.780166611696
 20
110.518495336175
 30
0.0
 40
1.088999986649
  1
1
 50
0.000002504478
 41
1.000000013683
  7
TXT
100
AcDbText
  0
TEXT
  5
167
100
AcDbEntity
  8
0
  6
CONTINUOUS
 62
          15
100
AcDbText
 10
193.229583725945
 20
110.515847608447
 30
0.0
 40
1.089660048485
  1
2
 50
0.000002504478
 41
0.999999931625
  7
TXT
100
AcDbText
  0
TEXT
  5
168
100
AcDbEntity
  8
0
  6
CONTINUOUS
 62
          15
100
AcDbText
 10
195.883865342156
 20
110.515847608447
 30
0.0
 40
1.089660048485
  1
2
 50
0.000002504478
 41
0.999999931625
  7
TXT
100
AcDbText
  0
TEXT
  5
169
100
AcDbEntity
  8
0
  6
CONTINUOUS
 62
          15
100
AcDbText
 10
172.274588182569
 20
107.721847519891
 30
0.0
 40
1.089660048485
  1
MUTE
 50
90.000002504478
 41
1.074074026465
  7
TXT
100
AcDbText
  0
TEXT
  5
16A
100
AcDbEntity
  8
0
  6
CONTINUOUS
 62
          15
100
AcDbText
 10
174.926672533154
 20
107.724487290398
 30
0.0
 40
1.089660048485
  1
TEST
 50
90.000002504478
 41
1.074074026465
  7
TXT
100
AcDbText
  0
TEXT
  5
16B
100
AcDbEntity
  8
0
  6
CONTINUOUS
 62
          15
100
AcDbText
 10
177.722891405225
 20
107.721847519891
 30
0.0
 40
1.089660048485
  1
COM
 50
90.000002504478
 41
1.111111053372
  7
TXT
100
AcDbText
  0
TEXT
  5
16C
100
AcDbEntity
  8
0
  6
CONTINUOUS
 62
          15
100
AcDbText
 10
180.516882494092
 20
107.721847519891
 30
0.0
 40
1.089660048485
  1
AUD
 50
90.000002504478
 41
1.111111053372
  7
TXT
100
AcDbText
  0
TEXT
  5
16D
100
AcDbEntity
  8
0
  6
CONTINUOUS
 62
          15
100
AcDbText
 10
183.310873582959
 20
107.721847519891
 30
0.0
 40
1.089660048485
  1
+Ve
 50
90.000002504478
 41
1.111111053372
  7
TXT
100
AcDbText
  0
TEXT
  5
16E
100
AcDbEntity
  8
0
  6
CONTINUOUS
 62
          15
100
AcDbText
 10
186.104879930615
 20
107.721847519891
 30
0.0
 40
1.089660048485
  1
-Ve
 50
90.000002504478
 41
1.111111053372
  7
TXT
100
AcDbText
  0
TEXT
  5
16F
100
AcDbEntity
  8
0
  6
CONTINUOUS
 62
          15
100
AcDbText
 10
165.149871811891
 20
107.721849218011
 30
0.0
 40
1.088999986649
  1
RELAY
 50
0.000002504478
 41
0.95454543713
  7
TXT
100
AcDbText
  0
TEXT
  5
170
100
AcDbEntity
  8
0
  6
CONTINUOUS
 62
          15
100
AcDbText
 10
156.628173817133
 20
111.493746683002
 30
0.0
 40
0.838199973106
  1
SDX15PS
 50
0.000002504478
 41
1.037037102221
  7
TXT
100
AcDbText
  0
TEXT
  5
171
100
AcDbEntity
  8
0
  6
CONTINUOUS
 62
          15
100
AcDbText
 10
155.929672230219
 20
108.839449808002
 30
0.0
 40
0.838199973106
  1
SERIAL No
 50
0.000002504478
 41
1.027777848888
  7
TXT
100
AcDbText
  0
TEXT
  5
172
100
AcDbEntity
  8
0
  6
CONTINUOUS
 62
          15
100
AcDbText
 10
156.488479603266
 20
110.23645298183
 30
0.0
 40
0.838199973106
  1
ISSUE B
 50
0.000002504478
 41
1.037037102221
  7
TXT
100
AcDbText
  0
LINE
  5
173
100
AcDbEntity
  8
0
  6
CONTINUOUS
 62
          15
100
AcDbLine
 10
164.790176391602
 20
106.479629516602
 30
0.0
 11
197.790176391602
 21
106.479629516602
 31
0.0
  0
LINE
  5
174
100
AcDbEntity
  8
0
  6
CONTINUOUS
 62
          15
100
AcDbLine
 10
154.637420654297
 20
106.479629516602
 30
0.0
 11
164.199783325195
 21
106.479629516602
 31
0.0
  0
LINE
  5
175
100
AcDbEntity
  8
0
  6
CONTINUOUS
 62
          15
100
AcDbLine
 10
197.790176391602
 20
112.820899963379
 30
0.0
 11
197.790176391602
 21
106.479629516602
 31
0.0
  0
LINE
  5
176
100
AcDbEntity
  8
0
  6
CONTINUOUS
 62
          15
100
AcDbLine
 10
192.290176391602
 20
112.820899963379
 30
0.0
 11
192.290176391602
 21
109.57600402832
 31
0.0
  0
LINE
  5
177
100
AcDbEntity
  8
0
  6
CONTINUOUS
 62
          15
100
AcDbLine
 10
186.790176391602
 20
112.820899963379
 30
0.0
 11
186.790176391602
 21
106.479629516602
 31
0.0
  0
LINE
  5
178
100
AcDbEntity
  8
0
  6
CONTINUOUS
 62
          15
100
AcDbLine
 10
164.790176391602
 20
112.820899963379
 30
0.0
 11
164.790176391602
 21
106.479629516602
 31
0.0
  0
LINE
  5
179
100
AcDbEntity
  8
0
  6
CONTINUOUS
 62
          15
100
AcDbLine
 10
170.290176391602
 20
112.820899963379
 30
0.0
 11
170.290176391602
 21
106.479629516602
 31
0.0
  0
LINE
  5
17A
100
AcDbEntity
  8
0
  6
CONTINUOUS
 62
          15
100
AcDbLine
 10
178.540176391602
 20
112.820899963379
 30
0.0
 11
178.540176391602
 21
106.479629516602
 31
0.0
  0
LINE
  5
17B
100
AcDbEntity
  8
0
  6
CONTINUOUS
 62
          15
100
AcDbLine
 10
186.790176391602
 20
109.57600402832
 30
0.0
 11
197.790176391602
 21
109.57600402832
 31
0.0
  0
LINE
  5
17C
100
AcDbEntity
  8
0
  6
CONTINUOUS
 62
          15
100
AcDbLine
 10
154.637420654297
 20
113.749389648438
 30
0.0
 11
164.199783325195
 21
113.749389648438
 31
0.0
  0
LINE
  5
17D
100
AcDbEntity
  8
0
  6
CONTINUOUS
 62
          15
100
AcDbLine
 10
164.199783325195
 20
113.749389648438
 30
0.0
 11
164.199783325195
 21
106.479629516602
 31
0.0
  0
LINE
  5
17E
100
AcDbEntity
  8
0
  6
CONTINUOUS
 62
          15
100
AcDbLine
 10
154.637420654297
 20
113.749389648438
 30
0.0
 11
154.637420654297
 21
106.479629516602
 31
0.0
  0
TEXT
  5
17F
100
AcDbEntity
  8
0
  6
CONTINUOUS
 62
          15
100
AcDbText
 10
203.66145323279
 20
117.788148656487
 30
0.0
 40
1.088999986649
  1
L
 50
0.000002504478
 41
0.95454543713
  7
TXT
100
AcDbText
  0
TEXT
  5
180
100
AcDbEntity
  8
0
  6
CONTINUOUS
 62
          15
100
AcDbText
 10
209.183395371462
 20
117.653527989984
 30
0.0
 40
1.088999986649
  1
N
 50
0.000002504478
 41
0.95454543713
  7
TXT
100
AcDbText
  0
ELLIPSE
  5
181
100
AcDbEntity
  8
0
  6
CONTINUOUS
 62
          15
100
AcDbEllipse
 10
184.616027832031
 20
114.009666442871
 30
0.0
 11
37.125
 21
0.0
 31
0.0
210
0.0
220
0.0
230
1.0
 40
0.518518518519
 41
0.0
 42
6.2831853071795862
  0
LINE
  5
182
100
AcDbEntity
  8
0
  6
CONTINUOUS
 62
          15
100
AcDbLine
 10
205.202941894531
 20
116.948616027832
 30
0.0
 11
208.649200439453
 21
116.948616027832
 31
0.0
  0
LINE
  5
183
100
AcDbEntity
  8
0
  6
CONTINUOUS
 62
          15
100
AcDbLine
 10
205.717895507813
 20
116.275489807129
 30
0.0
 11
208.015411376953
 21
116.275489807129
 31
0.0
  0
LINE
  5
184
100
AcDbEntity
  8
0
  6
CONTINUOUS
 62
          15
100
AcDbLine
 10
206.232864379883
 20
115.602363586426
 30
0.0
 11
207.381607055664
 21
115.602363586426
 31
0.0
  0
LINE
  5
185
100
AcDbEntity
  8
0
  6
CONTINUOUS
 62
          15
100
AcDbLine
 10
206.747817993164
 20
119.843971252441
 30
0.0
 11
206.747817993164
 21
116.948616027832
 31
0.0
  0
LINE
  5
186
100
AcDbEntity
  8
0
  6
CONTINUOUS
 62
          15
100
AcDbLine
 10
164.758697509766
 20
116.759666442871
 30
0.0
 11
197.741882324219
 21
116.759666442871
 31
0.0
  0
LINE
  5
187
100
AcDbEntity
  8
0
  6
CONTINUOUS
 62
          15
100
AcDbLine
 10
169.475769042969
 20
118.194808959961
 30
0.0
 11
168.522323608398
 21
119.148246765137
 31
0.0
  0
ELLIPSE
  5
188
100
AcDbEntity
  8
0
  6
CONTINUOUS
 62
          15
100
AcDbEllipse
 10
169.0107421875
 20
118.67724609375
 30
0.0
 11
-0.8458054131619205
 21
-0.0264423747198357
 31
0.0
210
0.0
220
0.0
230
1.0
 40
0.692971420477
 41
0.0
 42
6.2831853071795862
  0
LINE
  5
189
100
AcDbEntity
  8
0
  6
CONTINUOUS
 62
          15
100
AcDbLine
 10
166.67253112793
 20
118.213760375977
 30
0.0
 11
165.719085693359
 21
119.167190551758
 31
0.0
  0
ELLIPSE
  5
18A
100
AcDbEntity
  8
0
  6
CONTINUOUS
 62
          15
100
AcDbEllipse
 10
166.207504272461
 20
118.696197509766
 30
0.0
 11
-0.8458054131619205
 21
-0.0264423747198357
 31
0.0
210
0.0
220
0.0
230
1.0
 40
0.692971420477
 41
0.0
 42
6.2831853071795862
  0
LINE
  5
18B
100
AcDbEntity
  8
0
  6
CONTINUOUS
 62
          15
100
AcDbLine
 10
172.170257568359
 20
118.213760375977
 30
0.0
 11
171.216827392578
 21
119.167190551758
 31
0.0
  0
ELLIPSE
  5
18C
100
AcDbEntity
  8
0
  6
CONTINUOUS
 62
          15
100
AcDbEllipse
 10
171.70524597168
 20
118.696197509766
 30
0.0
 11
-0.8458054131619205
 21
-0.0264423747198357
 31
0.0
210
0.0
220
0.0
230
1.0
 40
0.692971420477
 41
0.0
 42
6.2831853071795862
  0
LINE
  5
18D
100
AcDbEntity
  8
0
  6
CONTINUOUS
 62
          15
100
AcDbLine
 10
174.866256713867
 20
118.213760375977
 30
0.0
 11
173.912826538086
 21
119.167190551758
 31
0.0
  0
ELLIPSE
  5
18E
100
AcDbEntity
  8
0
  6
CONTINUOUS
 62
          15
100
AcDbEllipse
 10
174.401245117188
 20
118.696197509766
 30
0.0
 11
-0.8458054131619205
 21
-0.0264423747198357
 31
0.0
210
0.0
220
0.0
230
1.0
 40
0.692971420477
 41
0.0
 42
6.2831853071795862
  0
LINE
  5
18F
100
AcDbEntity
  8
0
  6
CONTINUOUS
 62
          15
100
AcDbLine
 10
177.667999267578
 20
118.213760375977
 30
0.0
 11
176.714553833008
 21
119.167190551758
 31
0.0
  0
ELLIPSE
  5
190
100
AcDbEntity
  8
0
  6
CONTINUOUS
 62
          15
100
AcDbEllipse
 10
177.202972412109
 20
118.696197509766
 30
0.0
 11
-0.8458054131619205
 21
-0.0264423747198357
 31
0.0
210
0.0
220
0.0
230
1.0
 40
0.692971420477
 41
0.0
 42
6.2831853071795862
  0
LINE
  5
191
100
AcDbEntity
  8
0
  6
CONTINUOUS
 62
          15
100
AcDbLine
 10
180.363998413086
 20
118.213760375977
 30
0.0
 11
179.410552978516
 21
119.167190551758
 31
0.0
  0
ELLIPSE
  5
192
100
AcDbEntity
  8
0
  6
CONTINUOUS
 62
          15
100
AcDbEllipse
 10
179.898971557617
 20
118.696197509766
 30
0.0
 11
-0.8458054131619205
 21
-0.0264423747198357
 31
0.0
210
0.0
220
0.0
230
1.0
 40
0.692971420477
 41
0.0
 42
6.2831853071795862
  0
LINE
  5
193
100
AcDbEntity
  8
0
  6
CONTINUOUS
 62
          15
100
AcDbLine
 10
183.220245361328
 20
118.200088500977
 30
0.0
 11
182.266799926758
 21
119.153518676758
 31
0.0
  0
ELLIPSE
  5
194
100
AcDbEntity
  8
0
  6
CONTINUOUS
 62
          15
100
AcDbEllipse
 10
182.755218505859
 20
118.682525634766
 30
0.0
 11
-0.8458054131619205
 21
-0.0264423747198357
 31
0.0
210
0.0
220
0.0
230
1.0
 40
0.692971420477
 41
0.0
 42
6.2831853071795862
  0
LINE
  5
195
100
AcDbEntity
  8
0
  6
CONTINUOUS
 62
          15
100
AcDbLine
 10
186.106246948242
 20
118.200088500977
 30
0.0
 11
185.152816772461
 21
119.153518676758
 31
0.0
  0
ELLIPSE
  5
196
100
AcDbEntity
  8
0
  6
CONTINUOUS
 62
          15
100
AcDbEllipse
 10
185.641235351563
 20
118.682525634766
 30
0.0
 11
-0.8458054131619205
 21
-0.0264423747198357
 31
0.0
210
0.0
220
0.0
230
1.0
 40
0.692971420477
 41
0.0
 42
6.2831853071795862
  0
LINE
  5
197
100
AcDbEntity
  8
0
  6
CONTINUOUS
 62
          15
100
AcDbLine
 10
188.671600341797
 20
118.200088500977
 30
0.0
 11
187.718170166016
 21
119.153518676758
 31
0.0
  0
ELLIPSE
  5
198
100
AcDbEntity
  8
0
  6
CONTINUOUS
 62
          15
100
AcDbEllipse
 10
188.206588745117
 20
118.682525634766
 30
0.0
 11
-0.8458054131619205
 21
-0.0264423747198357
 31
0.0
210
0.0
220
0.0
230
1.0
 40
0.692971420477
 41
0.0
 42
6.2831853071795862
  0
LINE
  5
199
100
AcDbEntity
  8
0
  6
CONTINUOUS
 62
          15
100
AcDbLine
 10
191.191131591797
 20
118.200088500977
 30
0.0
 11
190.237701416016
 21
119.153518676758
 31
0.0
  0
ELLIPSE
  5
19A
100
AcDbEntity
  8
0
  6
CONTINUOUS
 62
          15
100
AcDbEllipse
 10
190.726104736328
 20
118.682525634766
 30
0.0
 11
-0.8458054131619205
 21
-0.0264423747198357
 31
0.0
210
0.0
220
0.0
230
1.0
 40
0.692971420477
 41
0.0
 42
6.2831853071795862
  0
LINE
  5
19B
100
AcDbEntity
  8
0
  6
CONTINUOUS
 62
          15
100
AcDbLine
 10
194.122955322266
 20
118.200088500977
 30
0.0
 11
193.169525146484
 21
119.153518676758
 31
0.0
  0
ELLIPSE
  5
19C
100
AcDbEntity
  8
0
  6
CONTINUOUS
 62
          15
100
AcDbEllipse
 10
193.657943725586
 20
118.682525634766
 30
0.0
 11
-0.8458054131619205
 21
-0.0264423747198357
 31
0.0
210
0.0
220
0.0
230
1.0
 40
0.692971420477
 41
0.0
 42
6.2831853071795862
  0
LINE
  5
19D
100
AcDbEntity
  8
0
  6
CONTINUOUS
 62
          15
100
AcDbLine
 10
196.779922485352
 20
118.200088500977
 30
0.0
 11
195.82649230957
 21
119.153518676758
 31
0.0
  0
ELLIPSE
  5
19E
100
AcDbEntity
  8
0
  6
CONTINUOUS
 62
          15
100
AcDbEllipse
 10
196.314895629883
 20
118.682525634766
 30
0.0
 11
-0.8458054131619205
 21
-0.0264423747198357
 31
0.0
210
0.0
220
0.0
230
1.0
 40
0.692971420477
 41
0.0
 42
6.2831853071795862
  0
LINE
  5
19F
100
AcDbEntity
  8
0
  6
CONTINUOUS
 62
          15
100
AcDbLine
 10
204.416580200195
 20
124.454170227051
 30
0.0
 11
203.463134765625
 21
125.407608032227
 31
0.0
  0
ELLIPSE
  5
1A0
100
AcDbEntity
  8
0
  6
CONTINUOUS
 62
          15
100
AcDbEllipse
 10
203.951553344727
 20
124.936614990234
 30
0.0
 11
-0.8458054131619205
 21
-0.0264423747198357
 31
0.0
210
0.0
220
0.0
230
1.0
 40
0.692971420477
 41
0.0
 42
6.2831853071795862
  0
LINE
  5
1A1
100
AcDbEntity
  8
0
  6
CONTINUOUS
 62
          15
100
AcDbLine
 10
207.218307495117
 20
124.454170227051
 30
0.0
 11
206.264877319336
 21
125.407608032227
 31
0.0
  0
ELLIPSE
  5
1A2
100
AcDbEntity
  8
0
  6
CONTINUOUS
 62
          15
100
AcDbEllipse
 10
206.753280639648
 20
124.936614990234
 30
0.0
 11
-0.8458054131619205
 21
-0.0264423747198357
 31
0.0
210
0.0
220
0.0
230
1.0
 40
0.692971420477
 41
0.0
 42
6.2831853071795862
  0
LINE
  5
1A3
100
AcDbEntity
  8
0
  6
CONTINUOUS
 62
          15
100
AcDbLine
 10
210.020034790039
 20
124.454170227051
 30
0.0
 11
209.066604614258
 21
125.407608032227
 31
0.0
  0
ELLIPSE
  5
1A4
100
AcDbEntity
  8
0
  6
CONTINUOUS
 62
          15
100
AcDbEllipse
 10
209.555023193359
 20
124.936614990234
 30
0.0
 11
-0.8458054131619205
 21
-0.0264423747198357
 31
0.0
210
0.0
220
0.0
230
1.0
 40
0.692971420477
 41
0.0
 42
6.2831853071795862
  0
LINE
  5
1A5
100
AcDbEntity
  8
0
  6
CONTINUOUS
 62
          15
100
AcDbLine
 10
202.310073852539
 20
123.079917907715
 30
0.0
 11
210.69206237793
 21
123.079917907715
 31
0.0
  0
LINE
  5
1A6
100
AcDbEntity
  8
0
  6
CONTINUOUS
 62
          15
100
AcDbLine
 10
192.921676635742
 20
115.842460632324
 30
0.0
 11
194.401840209961
 21
115.842460632324
 31
0.0
  0
LINE
  5
1A7
100
AcDbEntity
  8
0
  6
CONTINUOUS
 62
          15
100
AcDbLine
 10
194.401840209961
 20
115.842460632324
 30
0.0
 11
194.401840209961
 21
113.727066040039
 31
0.0
  0
LINE
  5
1A8
100
AcDbEntity
  8
0
  6
CONTINUOUS
 62
          15
100
AcDbLine
 10
194.401840209961
 20
113.727066040039
 30
0.0
 11
192.921676635742
 21
113.727066040039
 31
0.0
  0
LINE
  5
1A9
100
AcDbEntity
  8
0
  6
CONTINUOUS
 62
          15
100
AcDbLine
 10
192.921676635742
 20
113.727066040039
 30
0.0
 11
192.921676635742
 21
115.842460632324
 31
0.0
  0
LINE
  5
1AA
100
AcDbEntity
  8
0
  6
CONTINUOUS
 62
          15
100
AcDbLine
 10
192.921676635742
 20
114.414566040039
 30
0.0
 11
194.401840209961
 21
114.414566040039
 31
0.0
  0
LINE
  5
1AB
100
AcDbEntity
  8
0
  6
CONTINUOUS
 62
          15
100
AcDbLine
 10
189.973083496094
 20
115.842460632324
 30
0.0
 11
191.453247070313
 21
115.842460632324
 31
0.0
  0
LINE
  5
1AC
100
AcDbEntity
  8
0
  6
CONTINUOUS
 62
          15
100
AcDbLine
 10
191.453247070313
 20
115.842460632324
 30
0.0
 11
191.453247070313
 21
113.727066040039
 31
0.0
  0
LINE
  5
1AD
100
AcDbEntity
  8
0
  6
CONTINUOUS
 62
          15
100
AcDbLine
 10
191.453247070313
 20
113.727066040039
 30
0.0
 11
189.973083496094
 21
113.727066040039
 31
0.0
  0
LINE
  5
1AE
100
AcDbEntity
  8
0
  6
CONTINUOUS
 62
          15
100
AcDbLine
 10
189.973083496094
 20
113.727066040039
 30
0.0
 11
189.973083496094
 21
115.842460632324
 31
0.0
  0
LINE
  5
1AF
100
AcDbEntity
  8
0
  6
CONTINUOUS
 62
          15
100
AcDbLine
 10
189.973083496094
 20
114.414566040039
 30
0.0
 11
191.453247070313
 21
114.414566040039
 31
0.0
  0
LINE
  5
1B0
100
AcDbEntity
  8
0
  6
CONTINUOUS
 62
          15
100
AcDbLine
 10
195.613876342773
 20
115.842460632324
 30
0.0
 11
197.094024658203
 21
115.842460632324
 31
0.0
  0
LINE
  5
1B1
100
AcDbEntity
  8
0
  6
CONTINUOUS
 62
          15
100
AcDbLine
 10
197.094024658203
 20
115.842460632324
 30
0.0
 11
197.094024658203
 21
113.727066040039
 31
0.0
  0
LINE
  5
1B2
100
AcDbEntity
  8
0
  6
CONTINUOUS
 62
          15
100
AcDbLine
 10
197.094024658203
 20
113.727066040039
 30
0.0
 11
195.613876342773
 21
113.727066040039
 31
0.0
  0
LINE
  5
1B3
100
AcDbEntity
  8
0
  6
CONTINUOUS
 62
          15
100
AcDbLine
 10
195.613876342773
 20
113.727066040039
 30
0.0
 11
195.613876342773
 21
115.842460632324
 31
0.0
  0
LINE
  5
1B4
100
AcDbEntity
  8
0
  6
CONTINUOUS
 62
          15
100
AcDbLine
 10
195.613876342773
 20
114.414566040039
 30
0.0
 11
197.094024658203
 21
114.414566040039
 31
0.0
  0
LINE
  5
1B5
100
AcDbEntity
  8
0
  6
CONTINUOUS
 62
          15
100
AcDbLine
 10
184.973297119141
 20
115.841682434082
 30
0.0
 11
186.453460693359
 21
115.841682434082
 31
0.0
  0
LINE
  5
1B6
100
AcDbEntity
  8
0
  6
CONTINUOUS
 62
          15
100
AcDbLine
 10
186.453460693359
 20
115.841682434082
 30
0.0
 11
186.453460693359
 21
113.726280212402
 31
0.0
  0
LINE
  5
1B7
100
AcDbEntity
  8
0
  6
CONTINUOUS
 62
          15
100
AcDbLine
 10
186.453460693359
 20
113.726280212402
 30
0.0
 11
184.973297119141
 21
113.726280212402
 31
0.0
  0
LINE
  5
1B8
100
AcDbEntity
  8
0
  6
CONTINUOUS
 62
          15
100
AcDbLine
 10
184.973297119141
 20
113.726280212402
 30
0.0
 11
184.973297119141
 21
115.841682434082
 31
0.0
  0
LINE
  5
1B9
100
AcDbEntity
  8
0
  6
CONTINUOUS
 62
          15
100
AcDbLine
 10
184.973297119141
 20
114.413780212402
 30
0.0
 11
186.453460693359
 21
114.413780212402
 31
0.0
  0
LINE
  5
1BA
100
AcDbEntity
  8
0
  6
CONTINUOUS
 62
          15
100
AcDbLine
 10
182.024703979492
 20
115.841682434082
 30
0.0
 11
183.504867553711
 21
115.841682434082
 31
0.0
  0
LINE
  5
1BB
100
AcDbEntity
  8
0
  6
CONTINUOUS
 62
          15
100
AcDbLine
 10
183.504867553711
 20
115.841682434082
 30
0.0
 11
183.504867553711
 21
113.726280212402
 31
0.0
  0
LINE
  5
1BC
100
AcDbEntity
  8
0
  6
CONTINUOUS
 62
          15
100
AcDbLine
 10
183.504867553711
 20
113.726280212402
 30
0.0
 11
182.024703979492
 21
113.726280212402
 31
0.0
  0
LINE
  5
1BD
100
AcDbEntity
  8
0
  6
CONTINUOUS
 62
          15
100
AcDbLine
 10
182.024703979492
 20
113.726280212402
 30
0.0
 11
182.024703979492
 21
115.841682434082
 31
0.0
  0
LINE
  5
1BE
100
AcDbEntity
  8
0
  6
CONTINUOUS
 62
          15
100
AcDbLine
 10
182.024703979492
 20
114.413780212402
 30
0.0
 11
183.504867553711
 21
114.413780212402
 31
0.0
  0
LINE
  5
1BF
100
AcDbEntity
  8
0
  6
CONTINUOUS
 62
          15
100
AcDbLine
 10
187.473190307617
 20
115.841682434082
 30
0.0
 11
188.953353881836
 21
115.841682434082
 31
0.0
  0
LINE
  5
1C0
100
AcDbEntity
  8
0
  6
CONTINUOUS
 62
          15
100
AcDbLine
 10
188.953353881836
 20
115.841682434082
 30
0.0
 11
188.953353881836
 21
113.726280212402
 31
0.0
  0
LINE
  5
1C1
100
AcDbEntity
  8
0
  6
CONTINUOUS
 62
          15
100
AcDbLine
 10
188.953353881836
 20
113.726280212402
 30
0.0
 11
187.473190307617
 21
113.726280212402
 31
0.0
  0
LINE
  5
1C2
100
AcDbEntity
  8
0
  6
CONTINUOUS
 62
          15
100
AcDbLine
 10
187.473190307617
 20
113.726280212402
 30
0.0
 11
187.473190307617
 21
115.841682434082
 31
0.0
  0
LINE
  5
1C3
100
AcDbEntity
  8
0
  6
CONTINUOUS
 62
          15
100
AcDbLine
 10
187.473190307617
 20
114.413780212402
 30
0.0
 11
188.953353881836
 21
114.413780212402
 31
0.0
  0
LINE
  5
1C4
100
AcDbEntity
  8
0
  6
CONTINUOUS
 62
          15
100
AcDbLine
 10
176.576217651367
 20
115.841682434082
 30
0.0
 11
178.056365966797
 21
115.841682434082
 31
0.0
  0
LINE
  5
1C5
100
AcDbEntity
  8
0
  6
CONTINUOUS
 62
          15
100
AcDbLine
 10
178.056365966797
 20
115.841682434082
 30
0.0
 11
178.056365966797
 21
113.726280212402
 31
0.0
  0
LINE
  5
1C6
100
AcDbEntity
  8
0
  6
CONTINUOUS
 62
          15
100
AcDbLine
 10
178.056365966797
 20
113.726280212402
 30
0.0
 11
176.576217651367
 21
113.726280212402
 31
0.0
  0
LINE
  5
1C7
100
AcDbEntity
  8
0
  6
CONTINUOUS
 62
          15
100
AcDbLine
 10
176.576217651367
 20
113.726280212402
 30
0.0
 11
176.576217651367
 21
115.841682434082
 31
0.0
  0
LINE
  5
1C8
100
AcDbEntity
  8
0
  6
CONTINUOUS
 62
          15
100
AcDbLine
 10
176.576217651367
 20
114.413780212402
 30
0.0
 11
178.056365966797
 21
114.413780212402
 31
0.0
  0
LINE
  5
1C9
100
AcDbEntity
  8
0
  6
CONTINUOUS
 62
          15
100
AcDbLine
 10
173.627624511719
 20
115.841682434082
 30
0.0
 11
175.107772827148
 21
115.841682434082
 31
0.0
  0
LINE
  5
1CA
100
AcDbEntity
  8
0
  6
CONTINUOUS
 62
          15
100
AcDbLine
 10
175.107772827148
 20
115.841682434082
 30
0.0
 11
175.107772827148
 21
113.726280212402
 31
0.0
  0
LINE
  5
1CB
100
AcDbEntity
  8
0
  6
CONTINUOUS
 62
          15
100
AcDbLine
 10
175.107772827148
 20
113.726280212402
 30
0.0
 11
173.627624511719
 21
113.726280212402
 31
0.0
  0
LINE
  5
1CC
100
AcDbEntity
  8
0
  6
CONTINUOUS
 62
          15
100
AcDbLine
 10
173.627624511719
 20
113.726280212402
 30
0.0
 11
173.627624511719
 21
115.841682434082
 31
0.0
  0
LINE
  5
1CD
100
AcDbEntity
  8
0
  6
CONTINUOUS
 62
          15
100
AcDbLine
 10
173.627624511719
 20
114.413780212402
 30
0.0
 11
175.107772827148
 21
114.413780212402
 31
0.0
  0
LINE
  5
1CE
100
AcDbEntity
  8
0
  6
CONTINUOUS
 62
          15
100
AcDbLine
 10
179.076110839844
 20
115.841682434082
 30
0.0
 11
180.556259155273
 21
115.841682434082
 31
0.0
  0
LINE
  5
1CF
100
AcDbEntity
  8
0
  6
CONTINUOUS
 62
          15
100
AcDbLine
 10
180.556259155273
 20
115.841682434082
 30
0.0
 11
180.556259155273
 21
113.726280212402
 31
0.0
  0
LINE
  5
1D0
100
AcDbEntity
  8
0
  6
CONTINUOUS
 62
          15
100
AcDbLine
 10
180.556259155273
 20
113.726280212402
 30
0.0
 11
179.076110839844
 21
113.726280212402
 31
0.0
  0
LINE
  5
1D1
100
AcDbEntity
  8
0
  6
CONTINUOUS
 62
          15
100
AcDbLine
 10
179.076110839844
 20
113.726280212402
 30
0.0
 11
179.076110839844
 21
115.841682434082
 31
0.0
  0
LINE
  5
1D2
100
AcDbEntity
  8
0
  6
CONTINUOUS
 62
          15
100
AcDbLine
 10
179.076110839844
 20
114.413780212402
 30
0.0
 11
180.556259155273
 21
114.413780212402
 31
0.0
  0
LINE
  5
1D3
100
AcDbEntity
  8
0
  6
CONTINUOUS
 62
          15
100
AcDbLine
 10
168.40348815918
 20
115.841682434082
 30
0.0
 11
169.883651733398
 21
115.841682434082
 31
0.0
  0
LINE
  5
1D4
100
AcDbEntity
  8
0
  6
CONTINUOUS
 62
          15
100
AcDbLine
 10
169.883651733398
 20
115.841682434082
 30
0.0
 11
169.883651733398
 21
113.726280212402
 31
0.0
  0
LINE
  5
1D5
100
AcDbEntity
  8
0
  6
CONTINUOUS
 62
          15
100
AcDbLine
 10
169.883651733398
 20
113.726280212402
 30
0.0
 11
168.40348815918
 21
113.726280212402
 31
0.0
  0
LINE
  5
1D6
100
AcDbEntity
  8
0
  6
CONTINUOUS
 62
          15
100
AcDbLine
 10
168.40348815918
 20
113.726280212402
 30
0.0
 11
168.40348815918
 21
115.841682434082
 31
0.0
  0
LINE
  5
1D7
100
AcDbEntity
  8
0
  6
CONTINUOUS
 62
          15
100
AcDbLine
 10
168.40348815918
 20
114.413780212402
 30
0.0
 11
169.883651733398
 21
114.413780212402
 31
0.0
  0
LINE
  5
1D8
100
AcDbEntity
  8
0
  6
CONTINUOUS
 62
          15
100
AcDbLine
 10
165.454895019531
 20
115.841682434082
 30
0.0
 11
166.93505859375
 21
115.841682434082
 31
0.0
  0
LINE
  5
1D9
100
AcDbEntity
  8
0
  6
CONTINUOUS
 62
          15
100
AcDbLine
 10
166.93505859375
 20
115.841682434082
 30
0.0
 11
166.93505859375
 21
113.726280212402
 31
0.0
  0
LINE
  5
1DA
100
AcDbEntity
  8
0
  6
CONTINUOUS
 62
          15
100
AcDbLine
 10
166.93505859375
 20
113.726280212402
 30
0.0
 11
165.454895019531
 21
113.726280212402
 31
0.0
  0
LINE
  5
1DB
100
AcDbEntity
  8
0
  6
CONTINUOUS
 62
          15
100
AcDbLine
 10
165.454895019531
 20
113.726280212402
 30
0.0
 11
165.454895019531
 21
115.841682434082
 31
0.0
  0
LINE
  5
1DC
100
AcDbEntity
  8
0
  6
CONTINUOUS
 62
          15
100
AcDbLine
 10
165.454895019531
 20
114.413780212402
 30
0.0
 11
166.93505859375
 21
114.413780212402
 31
0.0
  0
LINE
  5
1DD
100
AcDbEntity
  8
0
  6
CONTINUOUS
 62
          15
100
AcDbLine
 10
170.903381347656
 20
115.841682434082
 30
0.0
 11
172.383544921875
 21
115.841682434082
 31
0.0
  0
LINE
  5
1DE
100
AcDbEntity
  8
0
  6
CONTINUOUS
 62
          15
100
AcDbLine
 10
172.383544921875
 20
115.841682434082
 30
0.0
 11
172.383544921875
 21
113.726280212402
 31
0.0
  0
LINE
  5
1DF
100
AcDbEntity
  8
0
  6
CONTINUOUS
 62
          15
100
AcDbLine
 10
172.383544921875
 20
113.726280212402
 30
0.0
 11
170.903381347656
 21
113.726280212402
 31
0.0
  0
LINE
  5
1E0
100
AcDbEntity
  8
0
  6
CONTINUOUS
 62
          15
100
AcDbLine
 10
170.903381347656
 20
113.726280212402
 30
0.0
 11
170.903381347656
 21
115.841682434082
 31
0.0
  0
LINE
  5
1E1
100
AcDbEntity
  8
0
  6
CONTINUOUS
 62
          15
100
AcDbLine
 10
170.903381347656
 20
114.413780212402
 30
0.0
 11
172.383544921875
 21
114.413780212402
 31
0.0
  0
LINE
  5
1E2
100
AcDbEntity
  8
0
  6
CONTINUOUS
 62
          15
100
AcDbLine
 10
206.023513793945
 20
122.480522155762
 30
0.0
 11
207.503662109375
 21
122.480522155762
 31
0.0
  0
LINE
  5
1E3
100
AcDbEntity
  8
0
  6
CONTINUOUS
 62
          15
100
AcDbLine
 10
207.503662109375
 20
122.480522155762
 30
0.0
 11
207.503662109375
 21
120.365119934082
 31
0.0
  0
LINE
  5
1E4
100
AcDbEntity
  8
0
  6
CONTINUOUS
 62
          15
100
AcDbLine
 10
207.503662109375
 20
120.365119934082
 30
0.0
 11
206.023513793945
 21
120.365119934082
 31
0.0
  0
LINE
  5
1E5
100
AcDbEntity
  8
0
  6
CONTINUOUS
 62
          15
100
AcDbLine
 10
206.023513793945
 20
120.365119934082
 30
0.0
 11
206.023513793945
 21
122.480522155762
 31
0.0
  0
LINE
  5
1E6
100
AcDbEntity
  8
0
  6
CONTINUOUS
 62
          15
100
AcDbLine
 10
206.023513793945
 20
121.052619934082
 30
0.0
 11
207.503662109375
 21
121.052619934082
 31
0.0
  0
LINE
  5
1E7
100
AcDbEntity
  8
0
  6
CONTINUOUS
 62
          15
100
AcDbLine
 10
203.074905395508
 20
122.480522155762
 30
0.0
 11
204.555068969727
 21
122.480522155762
 31
0.0
  0
LINE
  5
1E8
100
AcDbEntity
  8
0
  6
CONTINUOUS
 62
          15
100
AcDbLine
 10
204.555068969727
 20
122.480522155762
 30
0.0
 11
204.555068969727
 21
120.365119934082
 31
0.0
  0
LINE
  5
1E9
100
AcDbEntity
  8
0
  6
CONTINUOUS
 62
          15
100
AcDbLine
 10
204.555068969727
 20
120.365119934082
 30
0.0
 11
203.074905395508
 21
120.365119934082
 31
0.0
  0
LINE
  5
1EA
100
AcDbEntity
  8
0
  6
CONTINUOUS
 62
          15
100
AcDbLine
 10
203.074905395508
 20
120.365119934082
 30
0.0
 11
203.074905395508
 21
122.480522155762
 31
0.0
  0
LINE
  5
1EB
100
AcDbEntity
  8
0
  6
CONTINUOUS
 62
          15
100
AcDbLine
 10
203.074905395508
 20
121.052619934082
 30
0.0
 11
204.555068969727
 21
121.052619934082
 31
0.0
  0
LINE
  5
1EC
100
AcDbEntity
  8
0
  6
CONTINUOUS
 62
          15
100
AcDbLine
 10
208.715698242188
 20
122.480522155762
 30
0.0
 11
210.195861816406
 21
122.480522155762
 31
0.0
  0
LINE
  5
1ED
100
AcDbEntity
  8
0
  6
CONTINUOUS
 62
          15
100
AcDbLine
 10
210.195861816406
 20
122.480522155762
 30
0.0
 11
210.195861816406
 21
120.365119934082
 31
0.0
  0
LINE
  5
1EE
100
AcDbEntity
  8
0
  6
CONTINUOUS
 62
          15
100
AcDbLine
 10
210.195861816406
 20
120.365119934082
 30
0.0
 11
208.715698242188
 21
120.365119934082
 31
0.0
  0
LINE
  5
1EF
100
AcDbEntity
  8
0
  6
CONTINUOUS
 62
          15
100
AcDbLine
 10
208.715698242188
 20
120.365119934082
 30
0.0
 11
208.715698242188
 21
122.480522155762
 31
0.0
  0
LINE
  5
1F0
100
AcDbEntity
  8
0
  6
CONTINUOUS
 62
          15
100
AcDbLine
 10
208.715698242188
 20
121.052619934082
 30
0.0
 11
210.195861816406
 21
121.052619934082
 31
0.0
  0
LINE
  5
1F1
100
AcDbEntity
  8
0
  6
CONTINUOUS
 62
          15
100
AcDbLine
 10
188.213256835938
 20
105.207252502441
 30
0.0
 11
188.213256835938
 21
114.413780212402
 31
0.0
  0
LINE
  5
1F2
100
AcDbEntity
  8
0
  6
CONTINUOUS
 62
          15
100
AcDbLine
 10
188.213256835938
 20
101.419868469238
 30
0.0
 11
188.213256835938
 21
105.207252502441
 31
0.0
  0
LINE
  5
1F3
100
AcDbEntity
  8
0
  6
CONTINUOUS
 62
          15
100
AcDbLine
 10
193.661773681641
 20
105.207252502441
 30
0.0
 11
193.661773681641
 21
114.414566040039
 31
0.0
  0
LINE
  5
1F4
100
AcDbEntity
  8
0
  6
CONTINUOUS
 62
          15
100
AcDbLine
 10
193.661773681641
 20
100.038269042969
 30
0.0
 11
193.661773681641
 21
105.207252502441
 31
0.0
  0
LINE
  5
1F5
100
AcDbEntity
  8
0
  6
CONTINUOUS
 62
          15
100
AcDbLine
 10
190.713165283203
 20
105.208030700684
 30
0.0
 11
190.713165283203
 21
114.414566040039
 31
0.0
  0
LINE
  5
1F6
100
AcDbEntity
  8
0
  6
CONTINUOUS
 62
          15
100
AcDbLine
 10
196.161682128906
 20
105.208030700684
 30
0.0
 11
196.161682128906
 21
114.415344238281
 31
0.0
  0
LINE
  5
1F7
100
AcDbEntity
  8
0
  6
CONTINUOUS
 62
          15
100
AcDbLine
 10
210.546447753906
 20
106.453544616699
 30
0.0
 11
223.115875244141
 21
106.453544616699
 31
0.0
  0
LINE
  5
1F8
100
AcDbEntity
  8
0
  6
CONTINUOUS
 62
          15
100
AcDbLine
 10
208.01203918457
 20
103.880256652832
 30
0.0
 11
223.115875244141
 21
103.880256652832
 31
0.0
  0
LINE
  5
1F9
100
AcDbEntity
  8
0
  6
CONTINUOUS
 62
          15
100
AcDbLine
 10
205.477691650391
 20
101.30696105957
 30
0.0
 11
223.115875244141
 21
101.30696105957
 31
0.0
  0
LINE
  5
1FA
100
AcDbEntity
  8
0
  6
CONTINUOUS
 62
          15
100
AcDbLine
 10
210.546447753906
 20
106.453544616699
 30
0.0
 11
210.546447753906
 21
114.371353149414
 31
0.0
  0
LINE
  5
1FB
100
AcDbEntity
  8
0
  6
CONTINUOUS
 62
          15
100
AcDbLine
 10
208.01203918457
 20
103.880256652832
 30
0.0
 11
208.01203918457
 21
114.371353149414
 31
0.0
  0
LINE
  5
1FC
100
AcDbEntity
  8
0
  6
CONTINUOUS
 62
          15
100
AcDbLine
 10
205.477691650391
 20
101.30696105957
 30
0.0
 11
205.477691650391
 21
114.371353149414
 31
0.0
  0
LINE
  5
1FD
100
AcDbEntity
  8
0
  6
CONTINUOUS
 62
          15
100
AcDbLine
 10
190.713165283203
 20
90.990432739258
 30
0.0
 11
190.713165283203
 21
105.208030700684
 31
0.0
  0
LINE
  5
1FE
100
AcDbEntity
  8
0
  6
CONTINUOUS
 62
          15
100
AcDbLine
 10
196.161682128906
 20
90.990432739258
 30
0.0
 11
196.161682128906
 21
105.208030700684
 31
0.0
  0
LINE
  5
1FF
100
AcDbEntity
  8
0
  6
CONTINUOUS
 62
          15
100
AcDbLine
 10
199.208938598633
 20
90.982093811035
 30
0.0
 11
199.208938598633
 21
98.51155090332
 31
0.0
  0
TEXT
  5
200
100
AcDbEntity
  8
0
  6
CONTINUOUS
 62
          15
100
AcDbText
 10
224.047454833984
 20
103.562641911209
 30
0.0
 40
1.0
  1
EARTH
 41
1.000000014901
  7
GOTHICG
100
AcDbText
  0
TEXT
  5
201
100
AcDbEntity
  8
0
  6
CONTINUOUS
 62
          15
100
AcDbText
 10
231.892166137695
 20
103.062428288162
 30
0.0
 40
1.0
  1
FUSED AT 3 AMPS
 41
1.000000014901
  7
GOTHICG
100
AcDbText
  0
TEXT
  5
202
100
AcDbEntity
  8
0
  6
CONTINUOUS
 62
          15
100
AcDbText
 10
232.251922607422
 20
105.221829228103
 30
0.0
 40
1.0
  1
240 Vac SUPPLY
 41
1.000000014901
  7
GOTHICG
100
AcDbText
  0
LINE
  5
203
100
AcDbEntity
  8
0
  6
CONTINUOUS
 62
          15
100
AcDbLine
 10
27.001832962036
 20
106.162590026855
 30
0.0
 11
27.001832962036
 21
113.97843170166
 31
0.0
  0
LINE
  5
204
100
AcDbEntity
  8
0
  6
CONTINUOUS
 62
          15
100
AcDbLine
 10
27.001832962036
 20
55.795963287354
 30
0.0
 11
27.001832962036
 21
106.162590026855
 31
0.0
  0
LINE
  5
205
100
AcDbEntity
  8
0
  6
CONTINUOUS
 62
          15
100
AcDbLine
 10
34.732608795166
 20
53.948055267334
 30
0.0
 11
34.732608795166
 21
55.795963287354
 31
0.0
  0
LINE
  5
206
100
AcDbEntity
  8
0
  6
CONTINUOUS
 62
          15
100
AcDbLine
 10
39.232608795166
 20
53.948055267334
 30
0.0
 11
39.232608795166
 21
57.795963287354
 31
0.0
  0
LINE
  5
207
100
AcDbEntity
  8
0
  6
CONTINUOUS
 62
          15
100
AcDbLine
 10
41.482608795166
 20
53.948055267334
 30
0.0
 11
41.482608795166
 21
59.795963287354
 31
0.0
  0
LINE
  5
208
100
AcDbEntity
  8
0
  6
CONTINUOUS
 62
          15
100
AcDbLine
 10
45.982608795166
 20
53.948055267334
 30
0.0
 11
45.982608795166
 21
63.795963287354
 31
0.0
  0
LINE
  5
209
100
AcDbEntity
  8
0
  6
CONTINUOUS
 62
          15
100
AcDbLine
 10
27.001832962036
 20
55.795963287354
 30
0.0
 11
34.732608795166
 21
55.795963287354
 31
0.0
  0
LINE
  5
20A
100
AcDbEntity
  8
0
  6
CONTINUOUS
 62
          15
100
AcDbLine
 10
30.605936050415
 20
57.795963287354
 30
0.0
 11
39.232608795166
 21
57.795963287354
 31
0.0
  0
LINE
  5
20B
100
AcDbEntity
  8
0
  6
CONTINUOUS
 62
          15
100
AcDbLine
 10
33.448795318604
 20
59.795963287354
 30
0.0
 11
41.482608795166
 21
59.795963287354
 31
0.0
  0
LINE
  5
20C
100
AcDbEntity
  8
0
  6
CONTINUOUS
 62
          15
100
AcDbLine
 10
39.470767974854
 20
63.795963287354
 30
0.0
 11
45.982608795166
 21
63.795963287354
 31
0.0
  0
TEXT
  5
20D
100
AcDbEntity
  8
0
  6
CONTINUOUS
 62
          15
100
AcDbText
 10
223.972900390625
 20
101.003170780838
 30
0.0
 40
1.0
  1
LIVE
 41
1.000000014901
  7
GOTHICG
100
AcDbText
  0
TEXT
  5
20E
100
AcDbEntity
  8
0
  6
CONTINUOUS
 62
          15
100
AcDbText
 10
223.994827270508
 20
105.96195679158
 30
0.0
 40
1.0
  1
NEUTRAL
 41
1.000000014901
  7
GOTHICG
100
AcDbText
  0
TEXT
  5
20F
100
AcDbEntity
  8
0
  6
CONTINUOUS
 62
          15
100
AcDbText
 10
44.932415008545
 20
96.497523498535
 30
0.0
 40
1.5
  1
56K OHM RESISTOR MUST
 41
1.066666682561
  7
GOTHICI
100
AcDbText
  0
TEXT
  5
210
100
AcDbEntity
  8
0
  6
CONTINUOUS
 62
          15
100
AcDbText
 10
44.932415008545
 20
94.097523498535
 30
0.0
 40
1.5
  1
BE FITTED TO ANY UNUSED
 41
1.066666682561
  7
GOTHICI
100
AcDbText
  0
TEXT
  5
211
100
AcDbEntity
  8
0
  6
CONTINUOUS
 62
          15
100
AcDbText
 10
44.932415008545
 20
91.697523498535
 30
0.0
 40
1.5
  1
INPUTS.
 41
1.066666682561
  7
GOTHICI
100
AcDbText
  0
TEXT
  5
212
100
AcDbEntity
  8
0
  6
CONTINUOUS
 62
          15
100
AcDbText
 10
40.687554773614
 20
9.058130954901
 30
0.0
 40
2.0
  1
MEDICAL AIR
 41
1.050000011921
  7
GOTHICI
100
AcDbText
  0
LINE
  5
213
100
AcDbEntity
  8
0
  6
CONTINUOUS
 62
          15
100
AcDbLine
 10
53.226438856052
 20
22.80152552135
 30
0.0
 11
55.226438856052
 21
22.80152552135
 31
0.0
  0
LINE
  5
214
100
AcDbEntity
  8
0
  6
CONTINUOUS
 62
          15
100
AcDbLine
 10
45.827131605076
 20
22.80152552135
 30
0.0
 11
48.226438856052
 21
22.80152552135
 31
0.0
  0
LINE
  5
215
100
AcDbEntity
  8
0
  6
CONTINUOUS
 62
          15
100
AcDbLine
 10
53.226438856052
 20
22.80152552135
 30
0.0
 11
53.226438856052
 21
24.801527428698
 31
0.0
  0
LINE
  5
216
100
AcDbEntity
  8
0
  6
CONTINUOUS
 62
          15
100
AcDbLine
 10
48.226438856052
 20
22.80152552135
 30
0.0
 11
53.726438856052
 21
24.801527428698
 31
0.0
  0
LINE
  5
217
100
AcDbEntity
  8
0
  6
CONTINUOUS
 62
          15
100
AcDbLine
 10
55.226438856052
 20
22.80152552135
 30
0.0
 11
67.571054792331
 21
22.80152552135
 31
0.0
  0
LINE
  5
218
100
AcDbEntity
  8
0
  6
CONTINUOUS
 62
          15
100
AcDbLine
 10
43.642064112498
 20
22.80152552135
 30
0.0
 11
43.642064112498
 21
32.960644024228
 31
0.0
  0
LINE
  5
219
100
AcDbEntity
  8
0
  6
CONTINUOUS
 62
          15
100
AcDbLine
 10
43.642064112498
 20
22.80152552135
 30
0.0
 11
45.827131605076
 21
22.80152552135
 31
0.0
  0
LINE
  5
21A
100
AcDbEntity
  8
0
  6
CONTINUOUS
 62
          15
100
AcDbLine
 10
36.413928985596
 20
61.763313518374
 30
0.0
 11
36.413928985596
 21
106.170539855957
 31
0.0
  0
LINE
  5
21B
100
AcDbEntity
  8
0
  6
CONTINUOUS
 62
          15
100
AcDbLine
 10
43.749606994427
 20
54.048959725189
 30
0.0
 11
43.749606994427
 21
61.763313518374
 31
0.0
  0
LINE
  5
21C
100
AcDbEntity
  8
0
  6
CONTINUOUS
 62
          15
100
AcDbLine
 10
36.413928985596
 20
61.763313518374
 30
0.0
 11
43.749606994427
 21
61.763313518374
 31
0.0
  0
ENDSEC
  0
SECTION
  2
OBJECTS
  0
DICTIONARY
  5
19
100
AcDbDictionary
  3
ACAD_GROUP
350
1A
  3
ACAD_MLINESTYLE
350
1B
  0
DICTIONARY
  5
1A
102
{ACAD_REACTORS
330
19
102
}
100
AcDbDictionary
  0
DICTIONARY
  5
1B
102
{ACAD_REACTORS
330
19
102
}
100
AcDbDictionary
  3
STANDARD
350
1C
  0
MLINESTYLE
  5
1C
102
{ACAD_REACTORS
330
1B
102
}
100
AcDbMlineStyle
  2
STANDARD
 70
           0
  3

 62
           0
 51
90.0
 52
90.0
 71
           2
 49
0.5
 62
         256
  6
BYLAYER
 49
-0.5
 62
         256
  6
BYLAYER
  0
ENDSEC
  0
EOF
