  0
SECTION
  2
HEADER
  9
$ACADVER
  1
AC1012
  9
$DWGCODEPAGE
  3
dos850
  9
$INSBASE
 10
0.0
 20
0.0
 30
0.0
  9
$EXTMIN
 10
20.487213134766
 20
2.347878217697
 30
0.0
  9
$EXTMAX
 10
225.79670715332
 20
184.597274780273
 30
0.0
  9
$LIMMIN
 10
20.487213134766
 20
2.347878217697
  9
$LIMMAX
 10
225.79670715332
 20
184.597274780273
  9
$ORTHOMODE
 70
           0
  9
$REGENMODE
 70
           1
  9
$FILLMODE
 70
           1
  9
$QTEXTMODE
 70
           0
  9
$MIRRTEXT
 70
           1
  9
$DRAGMODE
 70
           2
  9
$LTSCALE
 40
5.0
  9
$OSMODE
 70
           0
  9
$ATTMODE
 70
           1
  9
$TEXTSIZE
 40
0.2
  9
$TRACEWID
 40
0.05
  9
$TEXTSTYLE
  7
TXT
  9
$CLAYER
  8
0
  9
$CELTYPE
  6
CONTINUOUS
  9
$CECOLOR
 62
         256
  9
$CELTSCALE
 40
1.0
  9
$DELOBJ
 70
           1
  9
$DISPSILH
 70
           0
  9
$DIMSCALE
 40
1.0
  9
$DIMASZ
 40
3.5
  9
$DIMEXO
 40
0.0625
  9
$DIMDLI
 40
0.38
  9
$DIMRND
 40
0.0
  9
$DIMDLE
 40
0.0
  9
$DIMEXE
 40
0.18
  9
$DIMTP
 40
0.0
  9
$DIMTM
 40
0.0
  9
$DIMTXT
 40
3.5
  9
$DIMCEN
 40
0.09
  9
$DIMTSZ
 40
0.0
  9
$DIMTOL
 70
           0
  9
$DIMLIM
 70
           0
  9
$DIMTIH
 70
           1
  9
$DIMTOH
 70
           1
  9
$DIMSE1
 70
           0
  9
$DIMSE2
 70
           0
  9
$DIMTAD
 70
           0
  9
$DIMZIN
 70
           0
  9
$DIMBLK
  1

  9
$DIMASO
 70
           1
  9
$DIMSHO
 70
           1
  9
$DIMPOST
  1

  9
$DIMAPOST
  1

  9
$DIMALT
 70
           0
  9
$DIMALTD
 70
           2
  9
$DIMALTF
 40
25.4
  9
$DIMLFAC
 40
1.0
  9
$DIMTOFL
 70
           0
  9
$DIMTVP
 40
0.0
  9
$DIMTIX
 70
           0
  9
$DIMSOXD
 70
           0
  9
$DIMSAH
 70
           0
  9
$DIMBLK1
  1

  9
$DIMBLK2
  1

  9
$DIMSTYLE
  2
STANDARD
  9
$DIMCLRD
 70
           0
  9
$DIMCLRE
 70
           0
  9
$DIMCLRT
 70
           0
  9
$DIMTFAC
 40
1.0
  9
$DIMGAP
 40
0.09
  9
$DIMJUST
 70
           0
  9
$DIMSD1
 70
           0
  9
$DIMSD2
 70
           0
  9
$DIMTOLJ
 70
           1
  9
$DIMTZIN
 70
           0
  9
$DIMALTZ
 70
           0
  9
$DIMALTTZ
 70
           0
  9
$DIMFIT
 70
           3
  9
$DIMUPT
 70
           0
  9
$DIMUNIT
 70
           2
  9
$DIMDEC
 70
           4
  9
$DIMTDEC
 70
           4
  9
$DIMALTU
 70
           2
  9
$DIMALTTD
 70
           2
  9
$DIMTXSTY
  7
TXT
  9
$DIMAUNIT
 70
           0
  9
$LUNITS
 70
           2
  9
$LUPREC
 70
           2
  9
$SKETCHINC
 40
0.1
  9
$FILLETRAD
 40
0.0
  9
$AUNITS
 70
           0
  9
$AUPREC
 70
           2
  9
$MENU
  1
acad
  9
$ELEVATION
 40
0.0
  9
$PELEVATION
 40
0.0
  9
$THICKNESS
 40
0.0
  9
$LIMCHECK
 70
           0
  9
$BLIPMODE
 70
           1
  9
$CHAMFERA
 40
0.0
  9
$CHAMFERB
 40
0.0
  9
$CHAMFERC
 40
0.0
  9
$CHAMFERD
 40
0.0
  9
$SKPOLY
 70
           0
  9
$TDCREATE
 40
0.000000000
  9
$TDUPDATE
 40
0.000000000
  9
$TDINDWG
 40
0.0000000000
  9
$TDUSRTIMER
 40
0.0000000000
  9
$USRTIMER
 70
           1
  9
$ANGBASE
 50
0.0
  9
$ANGDIR
 70
           0
  9
$PDMODE
 70
           2
  9
$PDSIZE
 40
0.5
  9
$PLINEWID
 40
0.0
  9
$COORDS
 70
           0
  9
$SPLFRAME
 70
           0
  9
$SPLINETYPE
 70
           6
  9
$SPLINESEGS
 70
           8
  9
$ATTDIA
 70
           0
  9
$ATTREQ
 70
           1
  9
$HANDLING
 70
           1
  9
$HANDSEED
  5
548
  9
$SURFTAB1
 70
           6
  9
$SURFTAB2
 70
           6
  9
$SURFTYPE
 70
           6
  9
$SURFU
 70
           6
  9
$SURFV
 70
           6
  9
$UCSNAME
  2

  9
$UCSORG
 10
0.0
 20
0.0
 30
0.0
  9
$UCSXDIR
 10
1.0
 20
0.0
 30
0.0
  9
$UCSYDIR
 10
0.0
 20
1.0
 30
0.0
  9
$PUCSNAME
  2

  9
$PUCSORG
 10
0.0
 20
0.0
 30
0.0
  9
$PUCSXDIR
 10
1.0
 20
0.0
 30
0.0
  9
$PUCSYDIR
 10
0.0
 20
1.0
 30
0.0
  9
$USERI1
 70
           0
  9
$USERI2
 70
           0
  9
$USERI3
 70
           0
  9
$USERI4
 70
           0
  9
$USERI5
 70
           0
  9
$USERR1
 40
0.0
  9
$USERR2
 40
0.0
  9
$USERR3
 40
0.0
  9
$USERR4
 40
0.0
  9
$USERR5
 40
0.0
  9
$WORLDVIEW
 70
           1
  9
$SHADEDGE
 70
           3
  9
$SHADEDIF
 70
          70
  9
$TILEMODE
 70
           1
  9
$MAXACTVP
 70
          16
  9
$PINSBASE
 10
0.0
 20
0.0
 30
0.0
  9
$PLIMCHECK
 70
           0
  9
$PEXTMIN
 10
1.000000000000E+20
 20
1.000000000000E+20
 30
1.000000000000E+20
  9
$PEXTMAX
 10
-1.000000000000E+20
 20
-1.000000000000E+20
 30
-1.000000000000E+20
  9
$PLIMMIN
 10
0.0
 20
0.0
  9
$PLIMMAX
 10
12.0
 20
9.0
  9
$UNITMODE
 70
           0
  9
$VISRETAIN
 70
           0
  9
$PLINEGEN
 70
           1
  9
$PSLTSCALE
 70
           0
  9
$TREEDEPTH
 70
        3020
  9
$PICKSTYLE
 70
           1
  9
$CMLSTYLE
  2
STANDARD
  9
$CMLJUST
 70
           0
  9
$CMLSCALE
 40
1.0
  9
$SAVEIMAGES
 70
           0
  0
ENDSEC
  0
SECTION
  2
CLASSES
  0
CLASS
  1
LWPOLYLINE
  2
AcDbPolyline
  3
"AutoCAD"
 90
        0
280
           0
281
           1
  0
CLASS
  1
IMAGE
  2
AcDbRasterImage
  3
ISM
 90
      127
280
           0
281
           1
  0
CLASS
  1
OLE2FRAME
  2
AcDbOle2Frame
  3
""
 90
        0
280
           0
281
           1
  0
CLASS
  1
HATCH
  2
AcDbHatch
  3
"ACAD_SEDONA"
 90
        0
280
           0
281
           1
  0
CLASS
  1
DICTIONARYVAR
  2
AcDbDictionaryVar
  3
"AutoCAD"
 90
        0
280
           0
281
           0
  0
CLASS
  1
RASTERVARIABLES
  2
AcDbRasterVariables
  3
ISM
 90
        0
280
           0
281
           0
  0
CLASS
  1
IMAGEDEF
  2
AcDbRasterImageDef
  3
ISM
 90
        0
280
           0
281
           0
  0
CLASS
  1
IMAGEDEF_REACTOR
  2
AcDbRasterImageDefReactor
  3
ISM
 90
        1
280
           0
281
           0
  0
CLASS
  1
IDBUFFER
  2
AcDbIdBuffer
  3
"Acad"
 90
        0
280
           0
281
           0
  0
CLASS
  1
SPATIAL_FILTER
  2
AcDbSpatialFilter
  3
"Acad"
 90
        0
280
           0
281
           0
  0
CLASS
  1
XRECORD
  2
AcDbXrecord
  3
"<Built In>"
 90
        0
280
           0
281
           0
  0
ENDSEC
  0
SECTION
  2
TABLES
  0
TABLE
  2
VPORT
  5
7
100
AcDbSymbolTable
 70
           1
  0
VPORT
  5
15
100
AcDbSymbolTableRecord
100
AcDbViewportTableRecord
  2
*ACTIVE
 70
           0
 10
0.0
 20
0.0
 11
1.0
 21
1.0
 12
6.591288
 22
4.579184
 13
0.0
 23
0.0
 14
1.0
 24
1.0
 15
0.0
 25
0.0
 16
0.0
 26
0.0
 36
1.0
 17
0.0
 27
0.0
 37
0.0
 40
9.158369
 41
0.688564
 42
50.0
 43
0.0
 44
0.0
 50
0.0
 51
0.0
 71
           0
 72
         100
 73
           1
 74
           1
 75
           0
 76
           0
 77
           0
 78
           0
  0
ENDTAB
  0
TABLE
  2
LTYPE
  5
4
100
AcDbSymbolTable
 70
           3
  0
LTYPE
  5
11
100
AcDbSymbolTableRecord
100
AcDbLinetypeTableRecord
  2
BYBLOCK
 70
           0
  3

 72
          65
 73
           0
 40
0.0
  0
LTYPE
  5
12
100
AcDbSymbolTableRecord
100
AcDbLinetypeTableRecord
  2
BYLAYER
 70
           0
  3

 72
          65
 73
           0
 40
0.0
  0
LTYPE
  5
13
100
AcDbSymbolTableRecord
100
AcDbLinetypeTableRecord
  2
CONTINUOUS
 70
           0
  3
Solid line
 72
          65
 73
           0
 40
0.0
  0
ENDTAB
  0
TABLE
  2
LAYER
  5
2
100
AcDbSymbolTable
 70
           1
  0
LAYER
  5
14
100
AcDbSymbolTableRecord
100
AcDbLayerTableRecord
  2
0
 70
           0
 62
           7
  6
CONTINUOUS
  0
ENDTAB
  0
TABLE
  2
STYLE
  5
3
100
AcDbSymbolTable
 70
           4
  0
STYLE
  5
17
100
AcDbSymbolTableRecord
100
AcDbTextStyleTableRecord
  2
TXT
 70
           0
 40
3.5
 41
1.0
 50
0.0
 71
           0
 42
3.5
  3
TXT
  4

  0
STYLE
  5
1D
100
AcDbSymbolTableRecord
100
AcDbTextStyleTableRecord
  2
GOTHICG
 70
           0
 40
3.5
 41
1.0
 50
0.0
 71
           0
 42
3.5
  3
GOTHICG
  4

  0
STYLE
  5
1E
100
AcDbSymbolTableRecord
100
AcDbTextStyleTableRecord
  2
GOTHICI
 70
           0
 40
3.5
 41
1.0
 50
0.0
 71
           0
 42
3.5
  3
GOTHICI
  4

  0
STYLE
  5
1F
100
AcDbSymbolTableRecord
100
AcDbTextStyleTableRecord
  2
ROMAND
 70
           0
 40
3.5
 41
1.0
 50
0.0
 71
           0
 42
3.5
  3
ROMAND
  4

  0
ENDTAB
  0
TABLE
  2
VIEW
  5
5
100
AcDbSymbolTable
 70
           0
  0
ENDTAB
  0
TABLE
  2
UCS
  5
6
100
AcDbSymbolTable
 70
           0
  0
ENDTAB
  0
TABLE
  2
APPID
  5
8
100
AcDbSymbolTable
 70
           2
  0
APPID
  5
16
100
AcDbSymbolTableRecord
100
AcDbRegAppTableRecord
  2
ACAD
 70
           0
  0
APPID
  5
20
100
AcDbSymbolTableRecord
100
AcDbRegAppTableRecord
  2
MegaCADPntStyle
 70
           0
  0
ENDTAB
  0
TABLE
  2
DIMSTYLE
  5
9
100
AcDbSymbolTable
 70
           1
  0
DIMSTYLE
105
18
100
AcDbSymbolTableRecord
100
AcDbDimStyleTableRecord
  2
STANDARD
 70
           0
  3

  4

  5

  6

  7

 40
1.0
 41
0.18
 42
0.0625
 43
0.38
 44
0.18
 45
0.0
 46
0.0
 47
0.0
 48
0.0
140
0.18
141
0.09
142
0.0
143
25.4
144
1.0
145
0.0
146
1.0
147
0.09
 71
           0
 72
           0
 73
           1
 74
           1
 75
           0
 76
           0
 77
           0
 78
           0
170
           0
171
           2
172
           0
173
           0
174
           0
175
           0
176
           0
177
           0
178
           0
270
           2
271
           4
272
           4
273
           2
274
           2
340
17
275
           0
280
           0
281
           0
282
           0
283
           1
284
           0
285
           0
286
           0
287
           0
288
           0
  0
ENDTAB
  0
TABLE
  2
BLOCK_RECORD
  5
1
100
AcDbSymbolTable
 70
           4
  0
BLOCK_RECORD
  5
A
100
AcDbSymbolTableRecord
100
AcDbBlockTableRecord
  2
*MODEL_SPACE
  0
BLOCK_RECORD
  5
B
100
AcDbSymbolTableRecord
100
AcDbBlockTableRecord
  2
*PAPER_SPACE
  0
BLOCK_RECORD
  5
21
100
AcDbSymbolTableRecord
100
AcDbBlockTableRecord
  2
ELIPPSE
  0
BLOCK_RECORD
  5
22
100
AcDbSymbolTableRecord
100
AcDbBlockTableRecord
  2
SDX_1
  0
BLOCK_RECORD
  5
23
100
AcDbSymbolTableRecord
100
AcDbBlockTableRecord
  2
SDXPSA_2
  0
BLOCK_RECORD
  5
24
100
AcDbSymbolTableRecord
100
AcDbBlockTableRecord
  2
SDXCI_3
  0
ENDTAB
  0
ENDSEC
  0
SECTION
  2
BLOCKS
  0
BLOCK
  5
D
100
AcDbEntity
  8
0
100
AcDbBlockBegin
  2
*MODEL_SPACE
 70
           0
 10
0.0
 20
0.0
 30
0.0
  3
*MODEL_SPACE
  1

  0
ENDBLK
  5
E
100
AcDbEntity
  8
0
100
AcDbBlockEnd
  0
BLOCK
  5
F
100
AcDbEntity
 67
           1
  8
0
100
AcDbBlockBegin
  2
*PAPER_SPACE
 70
           0
 10
0.0
 20
0.0
 30
0.0
  3
*PAPER_SPACE
  1

  0
ENDBLK
  5
10
100
AcDbEntity
 67
           1
  8
0
100
AcDbBlockEnd
  0
BLOCK
  5
3F3
100
AcDbEntity
  8
0
100
AcDbBlockBegin
  2
ELIPPSE
 70
          64
 10
0.0
 20
0.0
 30
0.0
  3
ELIPPSE
  1

  0
CIRCLE
  5
3F4
100
AcDbEntity
  8
0
  6
BYBLOCK
 62
           0
100
AcDbCircle
 10
0.0
 20
0.0
 30
0.0
 40
1.0
  0
ENDBLK
  5
3F5
100
AcDbEntity
  8
0
  6
BYBLOCK
 62
           0
100
AcDbBlockEnd
  0
BLOCK
  5
3F6
100
AcDbEntity
  8
0
100
AcDbBlockBegin
  2
SDX_1
 70
          64
 10
0.0
 20
0.0
 30
0.0
  3
SDX_1
  1

  0
LINE
  5
3F7
100
AcDbEntity
  8
0
  6
CONTINUOUS
 62
          15
100
AcDbLine
 10
-16.25
 20
0.0
 30
0.0
 11
16.25
 21
0.0
 31
0.0
  0
LINE
  5
3F8
100
AcDbEntity
  8
0
  6
CONTINUOUS
 62
          15
100
AcDbLine
 10
16.25
 20
0.0
 30
0.0
 11
16.25
 21
25.0
 31
0.0
  0
LINE
  5
3F9
100
AcDbEntity
  8
0
  6
CONTINUOUS
 62
          15
100
AcDbLine
 10
16.25
 20
25.0
 30
0.0
 11
-16.25
 21
25.0
 31
0.0
  0
LINE
  5
3FA
100
AcDbEntity
  8
0
  6
CONTINUOUS
 62
          15
100
AcDbLine
 10
-16.25
 20
25.0
 30
0.0
 11
-16.25
 21
0.0
 31
0.0
  0
LINE
  5
3FB
100
AcDbEntity
  8
0
  6
CONTINUOUS
 62
          15
100
AcDbLine
 10
-15.649993896484
 20
0.600006103516
 30
0.0
 11
15.649993896484
 21
0.600006103516
 31
0.0
  0
LINE
  5
3FC
100
AcDbEntity
  8
0
  6
CONTINUOUS
 62
          15
100
AcDbLine
 10
15.649993896484
 20
0.600006103516
 30
0.0
 11
15.649993896484
 21
24.40000406901
 31
0.0
  0
LINE
  5
3FD
100
AcDbEntity
  8
0
  6
CONTINUOUS
 62
          15
100
AcDbLine
 10
15.649993896484
 20
24.40000406901
 30
0.0
 11
-15.649993896484
 21
24.40000406901
 31
0.0
  0
LINE
  5
3FE
100
AcDbEntity
  8
0
  6
CONTINUOUS
 62
          15
100
AcDbLine
 10
-15.649993896484
 20
24.40000406901
 30
0.0
 11
-15.649993896484
 21
0.600006103516
 31
0.0
  0
LINE
  5
3FF
100
AcDbEntity
  8
0
  6
CONTINUOUS
 62
          15
100
AcDbLine
 10
-13.75
 20
2.5
 30
0.0
 11
13.75
 21
2.5
 31
0.0
  0
LINE
  5
400
100
AcDbEntity
  8
0
  6
CONTINUOUS
 62
          15
100
AcDbLine
 10
13.75
 20
2.5
 30
0.0
 11
13.75
 21
22.5
 31
0.0
  0
LINE
  5
401
100
AcDbEntity
  8
0
  6
CONTINUOUS
 62
          15
100
AcDbLine
 10
13.75
 20
22.5
 30
0.0
 11
-13.75
 21
22.5
 31
0.0
  0
LINE
  5
402
100
AcDbEntity
  8
0
  6
CONTINUOUS
 62
          15
100
AcDbLine
 10
-13.75
 20
22.5
 30
0.0
 11
-13.75
 21
2.5
 31
0.0
  0
LINE
  5
403
100
AcDbEntity
  8
0
  6
CONTINUOUS
 62
          15
100
AcDbLine
 10
-11.949991861979
 20
11.600006103516
 30
0.0
 11
-9.449991861979
 21
11.600006103516
 31
0.0
  0
LINE
  5
404
100
AcDbEntity
  8
0
  6
CONTINUOUS
 62
          15
100
AcDbLine
 10
-9.449991861979
 20
11.600006103516
 30
0.0
 11
-9.449991861979
 21
19.40000406901
 31
0.0
  0
LINE
  5
405
100
AcDbEntity
  8
0
  6
CONTINUOUS
 62
          15
100
AcDbLine
 10
-9.449991861979
 20
19.40000406901
 30
0.0
 11
-11.949991861979
 21
19.40000406901
 31
0.0
  0
LINE
  5
406
100
AcDbEntity
  8
0
  6
CONTINUOUS
 62
          15
100
AcDbLine
 10
-11.949991861979
 20
19.40000406901
 30
0.0
 11
-11.949991861979
 21
11.600006103516
 31
0.0
  0
LINE
  5
407
100
AcDbEntity
  8
0
  6
CONTINUOUS
 62
          15
100
AcDbLine
 10
-3.25
 20
11.600006103516
 30
0.0
 11
-0.75
 21
11.600006103516
 31
0.0
  0
LINE
  5
408
100
AcDbEntity
  8
0
  6
CONTINUOUS
 62
          15
100
AcDbLine
 10
-0.75
 20
11.600006103516
 30
0.0
 11
-0.75
 21
19.40000406901
 31
0.0
  0
LINE
  5
409
100
AcDbEntity
  8
0
  6
CONTINUOUS
 62
          15
100
AcDbLine
 10
-0.75
 20
19.40000406901
 30
0.0
 11
-3.25
 21
19.40000406901
 31
0.0
  0
LINE
  5
40A
100
AcDbEntity
  8
0
  6
CONTINUOUS
 62
          15
100
AcDbLine
 10
-3.25
 20
19.40000406901
 30
0.0
 11
-3.25
 21
11.600006103516
 31
0.0
  0
LINE
  5
40B
100
AcDbEntity
  8
0
  6
CONTINUOUS
 62
          15
100
AcDbLine
 10
0.950002034505
 20
11.600006103516
 30
0.0
 11
3.450002034505
 21
11.600006103516
 31
0.0
  0
LINE
  5
40C
100
AcDbEntity
  8
0
  6
CONTINUOUS
 62
          15
100
AcDbLine
 10
3.450002034505
 20
11.600006103516
 30
0.0
 11
3.450002034505
 21
19.40000406901
 31
0.0
  0
LINE
  5
40D
100
AcDbEntity
  8
0
  6
CONTINUOUS
 62
          15
100
AcDbLine
 10
3.450002034505
 20
19.40000406901
 30
0.0
 11
0.950002034505
 21
19.40000406901
 31
0.0
  0
LINE
  5
40E
100
AcDbEntity
  8
0
  6
CONTINUOUS
 62
          15
100
AcDbLine
 10
0.950002034505
 20
19.40000406901
 30
0.0
 11
0.950002034505
 21
11.600006103516
 31
0.0
  0
LINE
  5
40F
100
AcDbEntity
  8
0
  6
CONTINUOUS
 62
          15
100
AcDbLine
 10
5.149993896484
 20
11.600006103516
 30
0.0
 11
7.649993896484
 21
11.600006103516
 31
0.0
  0
LINE
  5
410
100
AcDbEntity
  8
0
  6
CONTINUOUS
 62
          15
100
AcDbLine
 10
7.649993896484
 20
11.600006103516
 30
0.0
 11
7.649993896484
 21
19.40000406901
 31
0.0
  0
LINE
  5
411
100
AcDbEntity
  8
0
  6
CONTINUOUS
 62
          15
100
AcDbLine
 10
7.649993896484
 20
19.40000406901
 30
0.0
 11
5.149993896484
 21
19.40000406901
 31
0.0
  0
LINE
  5
412
100
AcDbEntity
  8
0
  6
CONTINUOUS
 62
          15
100
AcDbLine
 10
5.149993896484
 20
19.40000406901
 30
0.0
 11
5.149993896484
 21
11.600006103516
 31
0.0
  0
LINE
  5
413
100
AcDbEntity
  8
0
  6
CONTINUOUS
 62
          15
100
AcDbLine
 10
9.350006103516
 20
11.600006103516
 30
0.0
 11
11.850006103516
 21
11.600006103516
 31
0.0
  0
LINE
  5
414
100
AcDbEntity
  8
0
  6
CONTINUOUS
 62
          15
100
AcDbLine
 10
11.850006103516
 20
11.600006103516
 30
0.0
 11
11.850006103516
 21
19.40000406901
 31
0.0
  0
LINE
  5
415
100
AcDbEntity
  8
0
  6
CONTINUOUS
 62
          15
100
AcDbLine
 10
11.850006103516
 20
19.40000406901
 30
0.0
 11
9.350006103516
 21
19.40000406901
 31
0.0
  0
LINE
  5
416
100
AcDbEntity
  8
0
  6
CONTINUOUS
 62
          15
100
AcDbLine
 10
9.350006103516
 20
19.40000406901
 30
0.0
 11
9.350006103516
 21
11.600006103516
 31
0.0
  0
LINE
  5
417
100
AcDbEntity
  8
0
  6
CONTINUOUS
 62
          15
100
AcDbLine
 10
-7.75
 20
11.600006103516
 30
0.0
 11
-5.25
 21
11.600006103516
 31
0.0
  0
LINE
  5
418
100
AcDbEntity
  8
0
  6
CONTINUOUS
 62
          15
100
AcDbLine
 10
-5.25
 20
11.600006103516
 30
0.0
 11
-5.25
 21
19.40000406901
 31
0.0
  0
LINE
  5
419
100
AcDbEntity
  8
0
  6
CONTINUOUS
 62
          15
100
AcDbLine
 10
-5.25
 20
19.40000406901
 30
0.0
 11
-7.75
 21
19.40000406901
 31
0.0
  0
LINE
  5
41A
100
AcDbEntity
  8
0
  6
CONTINUOUS
 62
          15
100
AcDbLine
 10
-7.75
 20
19.40000406901
 30
0.0
 11
-7.75
 21
11.600006103516
 31
0.0
  0
CIRCLE
  5
41B
100
AcDbEntity
  8
0
  6
CONTINUOUS
 62
          15
100
AcDbCircle
 10
-9.75
 20
7.0
 30
0.0
 40
0.5
  0
CIRCLE
  5
41C
100
AcDbEntity
  8
0
  6
CONTINUOUS
 62
          15
100
AcDbCircle
 10
-9.75
 20
9.5
 30
0.0
 40
0.5
  0
LINE
  5
41D
100
AcDbEntity
  8
0
  6
CONTINUOUS
 62
          15
100
AcDbLine
 10
-12.25
 20
11.0
 30
0.0
 11
12.25
 21
11.0
 31
0.0
  0
LINE
  5
41E
100
AcDbEntity
  8
0
  6
CONTINUOUS
 62
          15
100
AcDbLine
 10
-13.25
 20
10.5
 30
0.0
 11
13.116027832031
 21
10.5
 31
0.0
  0
LINE
  5
41F
100
AcDbEntity
  8
0
  6
CONTINUOUS
 62
          15
100
AcDbLine
 10
-3.25
 20
10.0
 30
0.0
 11
13.25
 21
10.0
 31
0.0
  0
LINE
  5
420
100
AcDbEntity
  8
0
  6
CONTINUOUS
 62
          15
100
AcDbLine
 10
-2.75
 20
9.5
 30
0.0
 11
13.25
 21
9.5
 31
0.0
  0
LINE
  5
421
100
AcDbEntity
  8
0
  6
CONTINUOUS
 62
          15
100
AcDbLine
 10
-2.25
 20
9.0
 30
0.0
 11
13.25
 21
9.0
 31
0.0
  0
LINE
  5
422
100
AcDbEntity
  8
0
  6
CONTINUOUS
 62
          15
100
AcDbLine
 10
-1.75
 20
8.5
 30
0.0
 11
13.25
 21
8.5
 31
0.0
  0
LINE
  5
423
100
AcDbEntity
  8
0
  6
CONTINUOUS
 62
          15
100
AcDbLine
 10
-12.25
 20
4.0
 30
0.0
 11
12.25
 21
4.0
 31
0.0
  0
LINE
  5
424
100
AcDbEntity
  8
0
  6
CONTINUOUS
 62
          15
100
AcDbLine
 10
-13.116027832031
 20
4.5
 30
0.0
 11
13.116027832031
 21
4.5
 31
0.0
  0
LINE
  5
425
100
AcDbEntity
  8
0
  6
CONTINUOUS
 62
          15
100
AcDbLine
 10
-13.25
 20
5.0
 30
0.0
 11
-3.134613037109
 21
5.0
 31
0.0
  0
LINE
  5
426
100
AcDbEntity
  8
0
  6
CONTINUOUS
 62
          15
100
AcDbLine
 10
-13.25
 20
5.5
 30
0.0
 11
-3.596160888672
 21
5.5
 31
0.0
  0
LINE
  5
427
100
AcDbEntity
  8
0
  6
CONTINUOUS
 62
          15
100
AcDbLine
 10
-13.25
 20
6.0
 30
0.0
 11
-4.057688395182
 21
6.0
 31
0.0
  0
TEXT
  5
428
100
AcDbEntity
  8
0
  6
CONTINUOUS
 62
          15
100
AcDbText
 10
5.75
 20
5.999996731679
 30
0.0
 40
1.399999936422
  1
SDX-15
 41
0.764285750981
  7
ROMAND
100
AcDbText
  0
LINE
  5
429
100
AcDbEntity
  8
0
  6
CONTINUOUS
 62
          15
100
AcDbLine
 10
-12.25
 20
22.0
 30
0.0
 11
12.25
 21
22.0
 31
0.0
  0
LINE
  5
42A
100
AcDbEntity
  8
0
  6
CONTINUOUS
 62
          15
100
AcDbLine
 10
-13.116027832031
 20
21.5
 30
0.0
 11
13.116027832031
 21
21.5
 31
0.0
  0
LINE
  5
42B
100
AcDbEntity
  8
0
  6
CONTINUOUS
 62
          15
100
AcDbLine
 10
-13.25
 20
20.0
 30
0.0
 11
13.25
 21
20.0
 31
0.0
  0
TEXT
  5
42C
100
AcDbEntity
  8
0
  6
CONTINUOUS
 62
          15
100
AcDbText
 10
-9.153818766276
 20
20.264792899291
 30
0.0
 40
1.0
  1
MEDICAL GAS ALARM
 41
1.070000002782
  7
ROMAND
100
AcDbText
  0
ENDBLK
  5
42D
100
AcDbEntity
  8
0
  6
BYBLOCK
 62
           0
100
AcDbBlockEnd
  0
BLOCK
  5
42E
100
AcDbEntity
  8
0
100
AcDbBlockBegin
  2
SDXPSA_2
 70
          64
 10
0.0
 20
0.0
 30
0.0
  3
SDXPSA_2
  1

  0
LINE
  5
42F
100
AcDbEntity
  8
0
  6
CONTINUOUS
 62
          15
100
AcDbLine
 10
-40.891189575195
 20
-42.928718566895
 30
0.0
 11
-40.891189575195
 21
-27.459526062012
 31
0.0
  0
LINE
  5
430
100
AcDbEntity
  8
0
  6
CONTINUOUS
 62
          15
100
AcDbLine
 10
17.528823852539
 20
-25.07674407959
 30
0.0
 11
17.528823852539
 21
-42.928718566895
 31
0.0
  0
LINE
  5
431
100
AcDbEntity
  8
0
  6
CONTINUOUS
 62
          15
100
AcDbLine
 10
17.528823852539
 20
-42.928718566895
 30
0.0
 11
-40.891189575195
 21
-42.928718566895
 31
0.0
  0
LINE
  5
432
100
AcDbEntity
  8
0
  6
CONTINUOUS
 62
          15
100
AcDbLine
 10
-1.01318359375
 20
-19.941719055176
 30
0.0
 11
-1.01318359375
 21
-25.02172088623
 31
0.0
  0
LINE
  5
433
100
AcDbEntity
  8
0
  6
CONTINUOUS
 62
          15
100
AcDbLine
 10
-1.01318359375
 20
-19.941719055176
 30
0.0
 11
-3.553176879883
 21
-19.941719055176
 31
0.0
  0
LINE
  5
434
100
AcDbEntity
  8
0
  6
CONTINUOUS
 62
          15
100
AcDbLine
 10
-3.553176879883
 20
-25.02172088623
 30
0.0
 11
-3.553176879883
 21
-19.941719055176
 31
0.0
  0
LINE
  5
435
100
AcDbEntity
  8
0
  6
CONTINUOUS
 62
          15
100
AcDbLine
 10
-3.553176879883
 20
-25.02172088623
 30
0.0
 11
-1.01318359375
 21
-25.02172088623
 31
0.0
  0
LINE
  5
436
100
AcDbEntity
  8
0
  6
CONTINUOUS
 62
          15
100
AcDbLine
 10
-1.01318359375
 20
-21.211723327637
 30
0.0
 11
-3.553176879883
 21
-21.211723327637
 31
0.0
  0
LINE
  5
437
100
AcDbEntity
  8
0
  6
CONTINUOUS
 62
          15
100
AcDbLine
 10
13.337814331055
 20
-23.497718811035
 30
0.0
 11
5.717819213867
 21
-23.497718811035
 31
0.0
  0
LINE
  5
438
100
AcDbEntity
  8
0
  6
CONTINUOUS
 62
          15
100
AcDbLine
 10
13.337814331055
 20
-23.497718811035
 30
0.0
 11
13.337814331055
 21
-29.593719482422
 31
0.0
  0
LINE
  5
439
100
AcDbEntity
  8
0
  6
CONTINUOUS
 62
          15
100
AcDbLine
 10
5.717819213867
 20
-29.593719482422
 30
0.0
 11
13.337814331055
 21
-29.593719482422
 31
0.0
  0
LINE
  5
43A
100
AcDbEntity
  8
0
  6
CONTINUOUS
 62
          15
100
AcDbLine
 10
5.717819213867
 20
-29.593719482422
 30
0.0
 11
5.717819213867
 21
-23.497718811035
 31
0.0
  0
LINE
  5
43B
100
AcDbEntity
  8
0
  6
CONTINUOUS
 62
          15
100
AcDbLine
 10
-11.528778076172
 20
-26.418716430664
 30
0.0
 11
-11.528778076172
 21
-23.878723144531
 31
0.0
  0
LINE
  5
43C
100
AcDbEntity
  8
0
  6
CONTINUOUS
 62
          15
100
AcDbLine
 10
-11.528778076172
 20
-26.418716430664
 30
0.0
 11
-12.798782348633
 21
-26.418716430664
 31
0.0
  0
LINE
  5
43D
100
AcDbEntity
  8
0
  6
CONTINUOUS
 62
          15
100
AcDbLine
 10
-12.798782348633
 20
-23.878723144531
 30
0.0
 11
-12.798782348633
 21
-26.418716430664
 31
0.0
  0
LINE
  5
43E
100
AcDbEntity
  8
0
  6
CONTINUOUS
 62
          15
100
AcDbLine
 10
-12.798782348633
 20
-23.878723144531
 30
0.0
 11
-11.528778076172
 21
-23.878723144531
 31
0.0
  0
LINE
  5
43F
100
AcDbEntity
  8
0
  6
CONTINUOUS
 62
          15
100
AcDbLine
 10
-12.163787841797
 20
-23.878723144531
 30
0.0
 11
-12.163787841797
 21
-23.561218261719
 31
0.0
  0
LINE
  5
440
100
AcDbEntity
  8
0
  6
CONTINUOUS
 62
          15
100
AcDbLine
 10
-12.163787841797
 20
-23.878723144531
 30
0.0
 11
-12.163787841797
 21
-23.878723144531
 31
0.0
  0
LINE
  5
441
100
AcDbEntity
  8
0
  6
CONTINUOUS
 62
          15
100
AcDbLine
 10
-12.163787841797
 20
-23.561218261719
 30
0.0
 11
-12.163787841797
 21
-23.878723144531
 31
0.0
  0
LINE
  5
442
100
AcDbEntity
  8
0
  6
CONTINUOUS
 62
          15
100
AcDbLine
 10
-12.163787841797
 20
-23.561218261719
 30
0.0
 11
-12.163787841797
 21
-23.561218261719
 31
0.0
  0
LINE
  5
443
100
AcDbEntity
  8
0
  6
CONTINUOUS
 62
          15
100
AcDbLine
 10
-12.163787841797
 20
-26.736221313477
 30
0.0
 11
-12.163787841797
 21
-26.418716430664
 31
0.0
  0
LINE
  5
444
100
AcDbEntity
  8
0
  6
CONTINUOUS
 62
          15
100
AcDbLine
 10
-12.163787841797
 20
-26.736221313477
 30
0.0
 11
-12.163787841797
 21
-26.736221313477
 31
0.0
  0
LINE
  5
445
100
AcDbEntity
  8
0
  6
CONTINUOUS
 62
          15
100
AcDbLine
 10
-12.163787841797
 20
-26.418716430664
 30
0.0
 11
-12.163787841797
 21
-26.736221313477
 31
0.0
  0
LINE
  5
446
100
AcDbEntity
  8
0
  6
CONTINUOUS
 62
          15
100
AcDbLine
 10
-12.163787841797
 20
-26.418716430664
 30
0.0
 11
-12.163787841797
 21
-26.418716430664
 31
0.0
  0
LINE
  5
447
100
AcDbEntity
  8
0
  6
CONTINUOUS
 62
          15
100
AcDbLine
 10
-11.528778076172
 20
-25.783721923828
 30
0.0
 11
-12.798782348633
 21
-25.783721923828
 31
0.0
  0
LINE
  5
448
100
AcDbEntity
  8
0
  6
CONTINUOUS
 62
          15
100
AcDbLine
 10
-8.429977416992
 20
-26.418716430664
 30
0.0
 11
-8.429977416992
 21
-23.878723144531
 31
0.0
  0
LINE
  5
449
100
AcDbEntity
  8
0
  6
CONTINUOUS
 62
          15
100
AcDbLine
 10
-8.429977416992
 20
-26.418716430664
 30
0.0
 11
-9.699981689453
 21
-26.418716430664
 31
0.0
  0
LINE
  5
44A
100
AcDbEntity
  8
0
  6
CONTINUOUS
 62
          15
100
AcDbLine
 10
-9.699981689453
 20
-23.878723144531
 30
0.0
 11
-9.699981689453
 21
-26.418716430664
 31
0.0
  0
LINE
  5
44B
100
AcDbEntity
  8
0
  6
CONTINUOUS
 62
          15
100
AcDbLine
 10
-9.699981689453
 20
-23.878723144531
 30
0.0
 11
-8.429977416992
 21
-23.878723144531
 31
0.0
  0
LINE
  5
44C
100
AcDbEntity
  8
0
  6
CONTINUOUS
 62
          15
100
AcDbLine
 10
-9.064987182617
 20
-23.878723144531
 30
0.0
 11
-9.064987182617
 21
-23.561218261719
 31
0.0
  0
LINE
  5
44D
100
AcDbEntity
  8
0
  6
CONTINUOUS
 62
          15
100
AcDbLine
 10
-9.064987182617
 20
-23.878723144531
 30
0.0
 11
-9.064987182617
 21
-23.878723144531
 31
0.0
  0
LINE
  5
44E
100
AcDbEntity
  8
0
  6
CONTINUOUS
 62
          15
100
AcDbLine
 10
-9.064987182617
 20
-23.561218261719
 30
0.0
 11
-9.064987182617
 21
-23.878723144531
 31
0.0
  0
LINE
  5
44F
100
AcDbEntity
  8
0
  6
CONTINUOUS
 62
          15
100
AcDbLine
 10
-9.064987182617
 20
-23.561218261719
 30
0.0
 11
-9.064987182617
 21
-23.561218261719
 31
0.0
  0
LINE
  5
450
100
AcDbEntity
  8
0
  6
CONTINUOUS
 62
          15
100
AcDbLine
 10
-9.064987182617
 20
-26.736221313477
 30
0.0
 11
-9.064987182617
 21
-26.418716430664
 31
0.0
  0
LINE
  5
451
100
AcDbEntity
  8
0
  6
CONTINUOUS
 62
          15
100
AcDbLine
 10
-9.064987182617
 20
-26.736221313477
 30
0.0
 11
-9.064987182617
 21
-26.736221313477
 31
0.0
  0
LINE
  5
452
100
AcDbEntity
  8
0
  6
CONTINUOUS
 62
          15
100
AcDbLine
 10
-9.064987182617
 20
-26.418716430664
 30
0.0
 11
-9.064987182617
 21
-26.736221313477
 31
0.0
  0
LINE
  5
453
100
AcDbEntity
  8
0
  6
CONTINUOUS
 62
          15
100
AcDbLine
 10
-9.064987182617
 20
-26.418716430664
 30
0.0
 11
-9.064987182617
 21
-26.418716430664
 31
0.0
  0
LINE
  5
454
100
AcDbEntity
  8
0
  6
CONTINUOUS
 62
          15
100
AcDbLine
 10
-8.429977416992
 20
-25.783721923828
 30
0.0
 11
-9.699981689453
 21
-25.783721923828
 31
0.0
  0
LINE
  5
455
100
AcDbEntity
  8
0
  6
CONTINUOUS
 62
          15
100
AcDbLine
 10
-7.794982910156
 20
-23.878723144531
 30
0.0
 11
-7.794982910156
 21
-26.418716430664
 31
0.0
  0
LINE
  5
456
100
AcDbEntity
  8
0
  6
CONTINUOUS
 62
          15
100
AcDbLine
 10
-7.794982910156
 20
-23.878723144531
 30
0.0
 11
-6.524978637695
 21
-23.878723144531
 31
0.0
  0
LINE
  5
457
100
AcDbEntity
  8
0
  6
CONTINUOUS
 62
          15
100
AcDbLine
 10
-6.524978637695
 20
-26.418716430664
 30
0.0
 11
-6.524978637695
 21
-23.878723144531
 31
0.0
  0
LINE
  5
458
100
AcDbEntity
  8
0
  6
CONTINUOUS
 62
          15
100
AcDbLine
 10
-6.524978637695
 20
-26.418716430664
 30
0.0
 11
-7.794982910156
 21
-26.418716430664
 31
0.0
  0
LINE
  5
459
100
AcDbEntity
  8
0
  6
CONTINUOUS
 62
          15
100
AcDbLine
 10
-7.15998840332
 20
-26.418716430664
 30
0.0
 11
-7.15998840332
 21
-26.736221313477
 31
0.0
  0
LINE
  5
45A
100
AcDbEntity
  8
0
  6
CONTINUOUS
 62
          15
100
AcDbLine
 10
-7.15998840332
 20
-26.418716430664
 30
0.0
 11
-7.15998840332
 21
-26.418716430664
 31
0.0
  0
LINE
  5
45B
100
AcDbEntity
  8
0
  6
CONTINUOUS
 62
          15
100
AcDbLine
 10
-7.15998840332
 20
-26.736221313477
 30
0.0
 11
-7.15998840332
 21
-26.418716430664
 31
0.0
  0
LINE
  5
45C
100
AcDbEntity
  8
0
  6
CONTINUOUS
 62
          15
100
AcDbLine
 10
-7.15998840332
 20
-26.736221313477
 30
0.0
 11
-7.15998840332
 21
-26.736221313477
 31
0.0
  0
LINE
  5
45D
100
AcDbEntity
  8
0
  6
CONTINUOUS
 62
          15
100
AcDbLine
 10
-7.15998840332
 20
-23.561218261719
 30
0.0
 11
-7.15998840332
 21
-23.878723144531
 31
0.0
  0
LINE
  5
45E
100
AcDbEntity
  8
0
  6
CONTINUOUS
 62
          15
100
AcDbLine
 10
-7.15998840332
 20
-23.561218261719
 30
0.0
 11
-7.15998840332
 21
-23.561218261719
 31
0.0
  0
LINE
  5
45F
100
AcDbEntity
  8
0
  6
CONTINUOUS
 62
          15
100
AcDbLine
 10
-7.15998840332
 20
-23.878723144531
 30
0.0
 11
-7.15998840332
 21
-23.561218261719
 31
0.0
  0
LINE
  5
460
100
AcDbEntity
  8
0
  6
CONTINUOUS
 62
          15
100
AcDbLine
 10
-7.15998840332
 20
-23.878723144531
 30
0.0
 11
-7.15998840332
 21
-23.878723144531
 31
0.0
  0
LINE
  5
461
100
AcDbEntity
  8
0
  6
CONTINUOUS
 62
          15
100
AcDbLine
 10
-7.794982910156
 20
-24.513717651367
 30
0.0
 11
-6.524978637695
 21
-24.513717651367
 31
0.0
  0
LINE
  5
462
100
AcDbEntity
  8
0
  6
CONTINUOUS
 62
          15
100
AcDbLine
 10
-35.099990844727
 20
-33.149719238281
 30
0.0
 11
-28.749984741211
 21
-33.149719238281
 31
0.0
  0
LINE
  5
463
100
AcDbEntity
  8
0
  6
CONTINUOUS
 62
          15
100
AcDbLine
 10
-35.099990844727
 20
-33.149719238281
 30
0.0
 11
-35.099990844727
 21
-23.018920898438
 31
0.0
  0
LINE
  5
464
100
AcDbEntity
  8
0
  6
CONTINUOUS
 62
          15
100
AcDbLine
 10
-28.749984741211
 20
-20.250038146973
 30
0.0
 11
-28.749984741211
 21
-33.149719238281
 31
0.0
  0
LINE
  5
465
100
AcDbEntity
  8
0
  6
CONTINUOUS
 62
          15
100
AcDbLine
 10
3.177825927734
 20
-22.354721069336
 30
0.0
 11
13.337814331055
 21
-22.354721069336
 31
0.0
  0
LINE
  5
466
100
AcDbEntity
  8
0
  6
CONTINUOUS
 62
          15
100
AcDbLine
 10
3.177825927734
 20
-22.354721069336
 30
0.0
 11
3.177825927734
 21
-18.897811889648
 31
0.0
  0
LINE
  5
467
100
AcDbEntity
  8
0
  6
CONTINUOUS
 62
          15
100
AcDbLine
 10
2.441223144531
 20
-36.578720092773
 30
0.0
 11
16.258819580078
 21
-36.578720092773
 31
0.0
  0
LINE
  5
468
100
AcDbEntity
  8
0
  6
CONTINUOUS
 62
          15
100
AcDbLine
 10
2.441223144531
 20
-36.578720092773
 30
0.0
 11
2.441223144531
 21
-18.735824584961
 31
0.0
  0
LINE
  5
469
100
AcDbEntity
  8
0
  6
CONTINUOUS
 62
          15
100
AcDbLine
 10
16.258819580078
 20
-24.173133850098
 30
0.0
 11
16.258819580078
 21
-36.578720092773
 31
0.0
  0
ARC
  5
46A
100
AcDbEntity
  8
0
  6
CONTINUOUS
 62
          15
100
AcDbCircle
 10
9.273818969727
 20
-37.213722229004
 30
0.0
 40
4.927599906921
100
AcDbArc
 50
224.999999658377
 51
315.000002162855
  0
LINE
  5
46B
100
AcDbEntity
  8
0
  6
CONTINUOUS
 62
          15
100
AcDbLine
 10
1.653823852539
 20
-37.366119384766
 30
0.0
 11
17.05891418457
 21
-37.366119384766
 31
0.0
  0
LINE
  5
46C
100
AcDbEntity
  8
0
  6
CONTINUOUS
 62
          15
100
AcDbLine
 10
1.653823852539
 20
-37.366119384766
 30
0.0
 11
1.653823852539
 21
-18.574295043945
 31
0.0
  0
LINE
  5
46D
100
AcDbEntity
  8
0
  6
CONTINUOUS
 62
          15
100
AcDbLine
 10
17.05891418457
 20
-24.72811126709
 30
0.0
 11
17.05891418457
 21
-37.366119384766
 31
0.0
  0
ARC
  5
46E
100
AcDbEntity
  8
0
  6
CONTINUOUS
 62
          15
100
AcDbCircle
 10
-2.638778686523
 20
-46.903823852539
 30
0.0
 40
10.477499961853
100
AcDbArc
 50
36.249996170697
 51
65.750003252616
  0
ARC
  5
46F
100
AcDbEntity
  8
0
  6
CONTINUOUS
 62
          15
100
AcDbCircle
 10
21.02131652832
 20
-46.903823852539
 30
0.0
 40
10.325099945068
100
AcDbArc
 50
112.500011668334
 51
142.999996010783
  0
LINE
  5
470
100
AcDbEntity
  8
0
  6
CONTINUOUS
 62
          15
100
AcDbLine
 10
-28.419784545898
 20
-36.007217407227
 30
0.0
 11
-20.952178955078
 21
-36.007217407227
 31
0.0
  0
LINE
  5
471
100
AcDbEntity
  8
0
  6
CONTINUOUS
 62
          15
100
AcDbLine
 10
-28.419784545898
 20
-36.007217407227
 30
0.0
 11
-28.419784545898
 21
-28.539619445801
 31
0.0
  0
LINE
  5
472
100
AcDbEntity
  8
0
  6
CONTINUOUS
 62
          15
100
AcDbLine
 10
-20.952178955078
 20
-28.539619445801
 30
0.0
 11
-28.419784545898
 21
-28.539619445801
 31
0.0
  0
LINE
  5
473
100
AcDbEntity
  8
0
  6
CONTINUOUS
 62
          15
100
AcDbLine
 10
-20.952178955078
 20
-28.539619445801
 30
0.0
 11
-20.952178955078
 21
-36.007217407227
 31
0.0
  0
LINE
  5
474
100
AcDbEntity
  8
0
  6
CONTINUOUS
 62
          15
100
AcDbLine
 10
-20.914077758789
 20
-36.007217407227
 30
0.0
 11
-13.446487426758
 21
-36.007217407227
 31
0.0
  0
LINE
  5
475
100
AcDbEntity
  8
0
  6
CONTINUOUS
 62
          15
100
AcDbLine
 10
-20.914077758789
 20
-36.007217407227
 30
0.0
 11
-20.914077758789
 21
-28.539619445801
 31
0.0
  0
LINE
  5
476
100
AcDbEntity
  8
0
  6
CONTINUOUS
 62
          15
100
AcDbLine
 10
-13.446487426758
 20
-28.539619445801
 30
0.0
 11
-20.914077758789
 21
-28.539619445801
 31
0.0
  0
LINE
  5
477
100
AcDbEntity
  8
0
  6
CONTINUOUS
 62
          15
100
AcDbLine
 10
-13.446487426758
 20
-28.539619445801
 30
0.0
 11
-13.446487426758
 21
-36.007217407227
 31
0.0
  0
LINE
  5
478
100
AcDbEntity
  8
0
  6
CONTINUOUS
 62
          15
100
AcDbLine
 10
-15.834091186523
 20
-26.710823059082
 30
0.0
 11
-15.834091186523
 21
-21.465721130371
 31
0.0
  0
LINE
  5
479
100
AcDbEntity
  8
0
  6
CONTINUOUS
 62
          15
100
AcDbLine
 10
-15.834091186523
 20
-26.710823059082
 30
0.0
 11
-26.311584472656
 21
-26.710823059082
 31
0.0
  0
LINE
  5
47A
100
AcDbEntity
  8
0
  6
CONTINUOUS
 62
          15
100
AcDbLine
 10
-26.311584472656
 20
-21.465721130371
 30
0.0
 11
-26.311584472656
 21
-26.710823059082
 31
0.0
  0
LINE
  5
47B
100
AcDbEntity
  8
0
  6
CONTINUOUS
 62
          15
100
AcDbLine
 10
-26.311584472656
 20
-21.465721130371
 30
0.0
 11
-15.834091186523
 21
-21.465721130371
 31
0.0
  0
LINE
  5
47C
100
AcDbEntity
  8
0
  6
CONTINUOUS
 62
          15
100
AcDbLine
 10
-26.870391845703
 20
-23.92951965332
 30
0.0
 11
-26.870391845703
 21
-23.231018066406
 31
0.0
  0
LINE
  5
47D
100
AcDbEntity
  8
0
  6
CONTINUOUS
 62
          15
100
AcDbLine
 10
-26.870391845703
 20
-20.437019348145
 30
0.0
 11
-26.870391845703
 21
-21.135520935059
 31
0.0
  0
LINE
  5
47E
100
AcDbEntity
  8
0
  6
CONTINUOUS
 62
          15
100
AcDbLine
 10
-27.378387451172
 20
-21.135520935059
 30
0.0
 11
-27.378387451172
 21
-23.231018066406
 31
0.0
  0
LINE
  5
47F
100
AcDbEntity
  8
0
  6
CONTINUOUS
 62
          15
100
AcDbLine
 10
-27.378387451172
 20
-21.135520935059
 30
0.0
 11
-26.362380981445
 21
-21.135520935059
 31
0.0
  0
LINE
  5
480
100
AcDbEntity
  8
0
  6
CONTINUOUS
 62
          15
100
AcDbLine
 10
-26.362380981445
 20
-23.231018066406
 30
0.0
 11
-26.362380981445
 21
-21.135520935059
 31
0.0
  0
LINE
  5
481
100
AcDbEntity
  8
0
  6
CONTINUOUS
 62
          15
100
AcDbLine
 10
-26.362380981445
 20
-23.231018066406
 30
0.0
 11
-27.378387451172
 21
-23.231018066406
 31
0.0
  0
LINE
  5
482
100
AcDbEntity
  8
0
  6
CONTINUOUS
 62
          15
100
AcDbLine
 10
-26.362380981445
 20
-21.643516540527
 30
0.0
 11
-27.378387451172
 21
-21.643516540527
 31
0.0
  0
LINE
  5
483
100
AcDbEntity
  8
0
  6
CONTINUOUS
 62
          15
100
AcDbLine
 10
-26.362380981445
 20
-21.834022521973
 30
0.0
 11
-27.378387451172
 21
-21.834022521973
 31
0.0
  0
LINE
  5
484
100
AcDbEntity
  8
0
  6
CONTINUOUS
 62
          15
100
AcDbLine
 10
-13.408386230469
 20
-36.007217407227
 30
0.0
 11
-5.940780639648
 21
-36.007217407227
 31
0.0
  0
LINE
  5
485
100
AcDbEntity
  8
0
  6
CONTINUOUS
 62
          15
100
AcDbLine
 10
-13.408386230469
 20
-36.007217407227
 30
0.0
 11
-13.408386230469
 21
-28.539619445801
 31
0.0
  0
LINE
  5
486
100
AcDbEntity
  8
0
  6
CONTINUOUS
 62
          15
100
AcDbLine
 10
-5.940780639648
 20
-28.539619445801
 30
0.0
 11
-13.408386230469
 21
-28.539619445801
 31
0.0
  0
LINE
  5
487
100
AcDbEntity
  8
0
  6
CONTINUOUS
 62
          15
100
AcDbLine
 10
-5.940780639648
 20
-28.539619445801
 30
0.0
 11
-5.940780639648
 21
-36.007217407227
 31
0.0
  0
LINE
  5
488
100
AcDbEntity
  8
0
  6
CONTINUOUS
 62
          15
100
AcDbLine
 10
-5.902679443359
 20
-36.007217407227
 30
0.0
 11
1.564910888672
 21
-36.007217407227
 31
0.0
  0
LINE
  5
489
100
AcDbEntity
  8
0
  6
CONTINUOUS
 62
          15
100
AcDbLine
 10
-5.902679443359
 20
-36.007217407227
 30
0.0
 11
-5.902679443359
 21
-28.539619445801
 31
0.0
  0
LINE
  5
48A
100
AcDbEntity
  8
0
  6
CONTINUOUS
 62
          15
100
AcDbLine
 10
1.564910888672
 20
-28.539619445801
 30
0.0
 11
-5.902679443359
 21
-28.539619445801
 31
0.0
  0
LINE
  5
48B
100
AcDbEntity
  8
0
  6
CONTINUOUS
 62
          15
100
AcDbLine
 10
1.564910888672
 20
-28.539619445801
 30
0.0
 11
1.564910888672
 21
-36.007217407227
 31
0.0
  0
LINE
  5
48C
100
AcDbEntity
  8
0
  6
CONTINUOUS
 62
          15
100
AcDbLine
 10
5.895614624023
 20
-32.387718200684
 30
0.0
 11
3.889022827148
 21
-32.387718200684
 31
0.0
  0
LINE
  5
48D
100
AcDbEntity
  8
0
  6
CONTINUOUS
 62
          15
100
AcDbLine
 10
3.889022827148
 20
-32.387718200684
 30
0.0
 11
2.898422241211
 21
-34.140319824219
 31
0.0
  0
LINE
  5
48E
100
AcDbEntity
  8
0
  6
CONTINUOUS
 62
          15
100
AcDbLine
 10
2.898422241211
 20
-34.140319824219
 30
0.0
 11
3.889022827148
 21
-35.892921447754
 31
0.0
  0
LINE
  5
48F
100
AcDbEntity
  8
0
  6
CONTINUOUS
 62
          15
100
AcDbLine
 10
3.889022827148
 20
-35.892921447754
 30
0.0
 11
5.895614624023
 21
-35.892921447754
 31
0.0
  0
LINE
  5
490
100
AcDbEntity
  8
0
  6
CONTINUOUS
 62
          15
100
AcDbLine
 10
5.895614624023
 20
-35.892921447754
 30
0.0
 11
6.886215209961
 21
-34.140319824219
 31
0.0
  0
LINE
  5
491
100
AcDbEntity
  8
0
  6
CONTINUOUS
 62
          15
100
AcDbLine
 10
6.886215209961
 20
-34.140319824219
 30
0.0
 11
5.895614624023
 21
-32.387718200684
 31
0.0
  0
CIRCLE
  5
492
100
AcDbEntity
  8
0
  6
CONTINUOUS
 62
          15
100
AcDbCircle
 10
4.892318725586
 20
-34.140319824219
 30
0.0
 40
2.247900009155
  0
LINE
  5
493
100
AcDbEntity
  8
0
  6
CONTINUOUS
 62
          15
100
AcDbLine
 10
-32.051986694336
 20
-34.724517822266
 30
0.0
 11
-32.051986694336
 21
-34.724517822266
 31
0.0
  0
LINE
  5
494
100
AcDbEntity
  8
0
  6
CONTINUOUS
 62
          15
100
AcDbLine
 10
-32.051986694336
 20
-34.724517822266
 30
0.0
 11
-32.051986694336
 21
-33.454521179199
 31
0.0
  0
LINE
  5
495
100
AcDbEntity
  8
0
  6
CONTINUOUS
 62
          15
100
AcDbLine
 10
-32.051986694336
 20
-33.454521179199
 30
0.0
 11
-32.051986694336
 21
-33.454521179199
 31
0.0
  0
LINE
  5
496
100
AcDbEntity
  8
0
  6
CONTINUOUS
 62
          15
100
AcDbLine
 10
-32.051986694336
 20
-33.454521179199
 30
0.0
 11
-32.051986694336
 21
-34.724517822266
 31
0.0
  0
LINE
  5
497
100
AcDbEntity
  8
0
  6
CONTINUOUS
 62
          15
100
AcDbLine
 10
-31.734481811523
 20
-34.08952331543
 30
0.0
 11
-31.4169921875
 21
-34.08952331543
 31
0.0
  0
LINE
  5
498
100
AcDbEntity
  8
0
  6
CONTINUOUS
 62
          15
100
AcDbLine
 10
-31.734481811523
 20
-34.08952331543
 30
0.0
 11
-31.734481811523
 21
-34.08952331543
 31
0.0
  0
LINE
  5
499
100
AcDbEntity
  8
0
  6
CONTINUOUS
 62
          15
100
AcDbLine
 10
-31.4169921875
 20
-34.08952331543
 30
0.0
 11
-31.734481811523
 21
-34.08952331543
 31
0.0
  0
LINE
  5
49A
100
AcDbEntity
  8
0
  6
CONTINUOUS
 62
          15
100
AcDbLine
 10
-31.4169921875
 20
-34.08952331543
 30
0.0
 11
-31.4169921875
 21
-34.08952331543
 31
0.0
  0
LINE
  5
49B
100
AcDbEntity
  8
0
  6
CONTINUOUS
 62
          15
100
AcDbLine
 10
-32.051986694336
 20
-34.08952331543
 30
0.0
 11
-32.369491577148
 21
-34.08952331543
 31
0.0
  0
LINE
  5
49C
100
AcDbEntity
  8
0
  6
CONTINUOUS
 62
          15
100
AcDbLine
 10
-32.051986694336
 20
-34.08952331543
 30
0.0
 11
-32.051986694336
 21
-34.08952331543
 31
0.0
  0
LINE
  5
49D
100
AcDbEntity
  8
0
  6
CONTINUOUS
 62
          15
100
AcDbLine
 10
-32.369491577148
 20
-34.08952331543
 30
0.0
 11
-32.051986694336
 21
-34.08952331543
 31
0.0
  0
LINE
  5
49E
100
AcDbEntity
  8
0
  6
CONTINUOUS
 62
          15
100
AcDbLine
 10
-32.369491577148
 20
-34.08952331543
 30
0.0
 11
-32.369491577148
 21
-34.08952331543
 31
0.0
  0
LINE
  5
49F
100
AcDbEntity
  8
0
  6
CONTINUOUS
 62
          15
100
AcDbLine
 10
-31.734481811523
 20
-33.454521179199
 30
0.0
 11
-31.734481811523
 21
-34.724517822266
 31
0.0
  0
LINE
  5
4A0
100
AcDbEntity
  8
0
  6
CONTINUOUS
 62
          15
100
AcDbLine
 10
-0.251190185547
 20
-26.926719665527
 30
0.0
 11
-0.251190185547
 21
-26.926719665527
 31
0.0
  0
LINE
  5
4A1
100
AcDbEntity
  8
0
  6
CONTINUOUS
 62
          15
100
AcDbLine
 10
-0.251190185547
 20
-26.926719665527
 30
0.0
 11
-0.251190185547
 21
-28.196723937988
 31
0.0
  0
LINE
  5
4A2
100
AcDbEntity
  8
0
  6
CONTINUOUS
 62
          15
100
AcDbLine
 10
-0.251190185547
 20
-28.196723937988
 30
0.0
 11
-0.251190185547
 21
-28.196723937988
 31
0.0
  0
LINE
  5
4A3
100
AcDbEntity
  8
0
  6
CONTINUOUS
 62
          15
100
AcDbLine
 10
-0.251190185547
 20
-28.196723937988
 30
0.0
 11
-0.251190185547
 21
-26.926719665527
 31
0.0
  0
LINE
  5
4A4
100
AcDbEntity
  8
0
  6
CONTINUOUS
 62
          15
100
AcDbLine
 10
-0.886184692383
 20
-26.926719665527
 30
0.0
 11
-0.886184692383
 21
-26.926719665527
 31
0.0
  0
LINE
  5
4A5
100
AcDbEntity
  8
0
  6
CONTINUOUS
 62
          15
100
AcDbLine
 10
-0.886184692383
 20
-26.926719665527
 30
0.0
 11
-0.886184692383
 21
-28.196723937988
 31
0.0
  0
LINE
  5
4A6
100
AcDbEntity
  8
0
  6
CONTINUOUS
 62
          15
100
AcDbLine
 10
-0.886184692383
 20
-28.196723937988
 30
0.0
 11
-0.886184692383
 21
-28.196723937988
 31
0.0
  0
LINE
  5
4A7
100
AcDbEntity
  8
0
  6
CONTINUOUS
 62
          15
100
AcDbLine
 10
-0.886184692383
 20
-28.196723937988
 30
0.0
 11
-0.886184692383
 21
-26.926719665527
 31
0.0
  0
LINE
  5
4A8
100
AcDbEntity
  8
0
  6
CONTINUOUS
 62
          15
100
AcDbLine
 10
0.066314697266
 20
-27.561721801758
 30
0.0
 11
-0.251190185547
 21
-27.561721801758
 31
0.0
  0
LINE
  5
4A9
100
AcDbEntity
  8
0
  6
CONTINUOUS
 62
          15
100
AcDbLine
 10
0.066314697266
 20
-27.561721801758
 30
0.0
 11
0.066314697266
 21
-27.561721801758
 31
0.0
  0
LINE
  5
4AA
100
AcDbEntity
  8
0
  6
CONTINUOUS
 62
          15
100
AcDbLine
 10
-0.251190185547
 20
-27.561721801758
 30
0.0
 11
0.066314697266
 21
-27.561721801758
 31
0.0
  0
LINE
  5
4AB
100
AcDbEntity
  8
0
  6
CONTINUOUS
 62
          15
100
AcDbLine
 10
-0.251190185547
 20
-27.561721801758
 30
0.0
 11
-0.251190185547
 21
-27.561721801758
 31
0.0
  0
LINE
  5
4AC
100
AcDbEntity
  8
0
  6
CONTINUOUS
 62
          15
100
AcDbLine
 10
-0.886184692383
 20
-27.561721801758
 30
0.0
 11
-1.203689575195
 21
-27.561721801758
 31
0.0
  0
LINE
  5
4AD
100
AcDbEntity
  8
0
  6
CONTINUOUS
 62
          15
100
AcDbLine
 10
-0.886184692383
 20
-27.561721801758
 30
0.0
 11
-0.886184692383
 21
-27.561721801758
 31
0.0
  0
LINE
  5
4AE
100
AcDbEntity
  8
0
  6
CONTINUOUS
 62
          15
100
AcDbLine
 10
-1.203689575195
 20
-27.561721801758
 30
0.0
 11
-0.886184692383
 21
-27.561721801758
 31
0.0
  0
LINE
  5
4AF
100
AcDbEntity
  8
0
  6
CONTINUOUS
 62
          15
100
AcDbLine
 10
-1.203689575195
 20
-27.561721801758
 30
0.0
 11
-1.203689575195
 21
-27.561721801758
 31
0.0
  0
TEXT
  5
4B0
100
AcDbEntity
  8
0
  6
CONTINUOUS
 62
          15
100
AcDbText
 10
-5.204177869435
 20
-38.102722324431
 30
0.0
 40
0.990600049496
  1
1
 50
0.000002504478
 41
0.999999894702
  7
TXT
100
AcDbText
  0
TEXT
  5
4B1
100
AcDbEntity
  8
0
  6
CONTINUOUS
 62
          15
100
AcDbText
 10
-6.601181043264
 20
-40.769722141325
 30
0.0
 40
0.990600049496
  1
SIGNALS
 50
0.000002504478
 41
1.03703698021
  7
TXT
100
AcDbText
  0
TEXT
  5
4B2
100
AcDbEntity
  8
0
  6
CONTINUOUS
 62
          15
100
AcDbText
 10
-7.491180432904
 20
-38.100315980613
 30
0.0
 40
0.990000009537
  1
1
 50
0.000002504478
 41
0.999999969897
  7
TXT
100
AcDbText
  0
TEXT
  5
4B3
100
AcDbEntity
  8
0
  6
CONTINUOUS
 62
          15
100
AcDbText
 10
-2.537185681935
 20
-38.102722324431
 30
0.0
 40
0.990600049496
  1
2
 50
0.000002504478
 41
0.999999894702
  7
TXT
100
AcDbText
  0
TEXT
  5
4B4
100
AcDbEntity
  8
0
  6
CONTINUOUS
 62
          15
100
AcDbText
 10
-0.12419129717
 20
-38.102722324431
 30
0.0
 40
0.990600049496
  1
2
 50
0.000002504478
 41
0.999999894702
  7
TXT
100
AcDbText
  0
TEXT
  5
4B5
100
AcDbEntity
  8
0
  6
CONTINUOUS
 62
          15
100
AcDbText
 10
-21.587188564241
 20
-40.642723096486
 30
0.0
 40
0.990600049496
  1
MUTE
 50
90.000005008956
 41
1.074073990504
  7
TXT
100
AcDbText
  0
TEXT
  5
4B6
100
AcDbEntity
  8
0
  6
CONTINUOUS
 62
          15
100
AcDbText
 10
-19.176177822053
 20
-40.640319837209
 30
0.0
 40
0.990600049496
  1
TEST
 50
89.999994991043
 41
1.074073990504
  7
TXT
100
AcDbText
  0
TEXT
  5
4B7
100
AcDbEntity
  8
0
  6
CONTINUOUS
 62
          15
100
AcDbText
 10
-16.634185634553
 20
-40.642723096486
 30
0.0
 40
0.990600049496
  1
COM
 50
90.000005008956
 41
1.111111030884
  7
TXT
100
AcDbText
  0
TEXT
  5
4B8
100
AcDbEntity
  8
0
  6
CONTINUOUS
 62
          15
100
AcDbText
 10
-14.094177089632
 20
-40.642723096486
 30
0.0
 40
0.990600049496
  1
AUD
 50
90.000005008956
 41
1.111111030884
  7
TXT
100
AcDbText
  0
TEXT
  5
4B9
100
AcDbEntity
  8
0
  6
CONTINUOUS
 62
          15
100
AcDbText
 10
-11.554183803499
 20
-40.642723096486
 30
0.0
 40
0.990600049496
  1
+Ve
 50
90.000005008956
 41
1.111111030884
  7
TXT
100
AcDbText
  0
TEXT
  5
4BA
100
AcDbEntity
  8
0
  6
CONTINUOUS
 62
          15
100
AcDbText
 10
-9.014190517366
 20
-40.642723096486
 30
0.0
 40
0.990600049496
  1
-Ve
 50
90.000005008956
 41
1.111111030884
  7
TXT
100
AcDbText
  0
TEXT
  5
4BB
100
AcDbEntity
  8
0
  6
CONTINUOUS
 62
          15
100
AcDbText
 10
-28.064178479779
 20
-40.642720155418
 30
0.0
 40
0.990000009537
  1
RELAY
 50
0.000002504478
 41
0.954545408022
  7
TXT
100
AcDbText
  0
TEXT
  5
4BC
100
AcDbEntity
  8
0
  6
CONTINUOUS
 62
          15
100
AcDbText
 10
-35.811187754133
 20
-37.21372179687
 30
0.0
 40
0.761999964714
  1
SDX15PS
 50
0.000002504478
 41
1.037037092082
  7
TXT
100
AcDbText
  0
TEXT
  5
4BD
100
AcDbEntity
  8
0
  6
CONTINUOUS
 62
          15
100
AcDbText
 10
-36.446182260969
 20
-39.62672381103
 30
0.0
 40
0.761999964714
  1
SERIAL No
 50
0.000002504478
 41
1.027777838617
  7
TXT
100
AcDbText
  0
TEXT
  5
4BE
100
AcDbEntity
  8
0
  6
CONTINUOUS
 62
          15
100
AcDbText
 10
-35.9381866555
 20
-38.356719538569
 30
0.0
 40
0.761999964714
  1
ISSUE B
 50
0.000002504478
 41
1.037037092082
  7
TXT
100
AcDbText
  0
LINE
  5
4BF
100
AcDbEntity
  8
0
  6
CONTINUOUS
 62
          15
100
AcDbLine
 10
-28.391189575195
 20
-41.772010803223
 30
0.0
 11
1.608810424805
 21
-41.772010803223
 31
0.0
  0
LINE
  5
4C0
100
AcDbEntity
  8
0
  6
CONTINUOUS
 62
          15
100
AcDbLine
 10
-37.620956420898
 20
-41.772010803223
 30
0.0
 11
-28.927886962891
 21
-41.772010803223
 31
0.0
  0
LINE
  5
4C1
100
AcDbEntity
  8
0
  6
CONTINUOUS
 62
          15
100
AcDbLine
 10
1.608810424805
 20
-36.007217407227
 30
0.0
 11
1.608810424805
 21
-41.772010803223
 31
0.0
  0
LINE
  5
4C2
100
AcDbEntity
  8
0
  6
CONTINUOUS
 62
          15
100
AcDbLine
 10
-3.391189575195
 20
-36.007217407227
 30
0.0
 11
-3.391189575195
 21
-38.957122802734
 31
0.0
  0
LINE
  5
4C3
100
AcDbEntity
  8
0
  6
CONTINUOUS
 62
          15
100
AcDbLine
 10
-8.391189575195
 20
-36.007217407227
 30
0.0
 11
-8.391189575195
 21
-41.772010803223
 31
0.0
  0
LINE
  5
4C4
100
AcDbEntity
  8
0
  6
CONTINUOUS
 62
          15
100
AcDbLine
 10
-28.391189575195
 20
-36.007217407227
 30
0.0
 11
-28.391189575195
 21
-41.772010803223
 31
0.0
  0
LINE
  5
4C5
100
AcDbEntity
  8
0
  6
CONTINUOUS
 62
          15
100
AcDbLine
 10
-23.391189575195
 20
-36.007217407227
 30
0.0
 11
-23.391189575195
 21
-41.772010803223
 31
0.0
  0
LINE
  5
4C6
100
AcDbEntity
  8
0
  6
CONTINUOUS
 62
          15
100
AcDbLine
 10
-15.891189575195
 20
-36.007217407227
 30
0.0
 11
-15.891189575195
 21
-41.772010803223
 31
0.0
  0
LINE
  5
4C7
100
AcDbEntity
  8
0
  6
CONTINUOUS
 62
          15
100
AcDbLine
 10
-8.391189575195
 20
-38.957122802734
 30
0.0
 11
1.608810424805
 21
-38.957122802734
 31
0.0
  0
LINE
  5
4C8
100
AcDbEntity
  8
0
  6
CONTINUOUS
 62
          15
100
AcDbLine
 10
-37.620956420898
 20
-35.163139343262
 30
0.0
 11
-28.927886962891
 21
-35.163139343262
 31
0.0
  0
LINE
  5
4C9
100
AcDbEntity
  8
0
  6
CONTINUOUS
 62
          15
100
AcDbLine
 10
-28.927886962891
 20
-35.163139343262
 30
0.0
 11
-28.927886962891
 21
-41.772010803223
 31
0.0
  0
LINE
  5
4CA
100
AcDbEntity
  8
0
  6
CONTINUOUS
 62
          15
100
AcDbLine
 10
-37.620956420898
 20
-35.163139343262
 30
0.0
 11
-37.620956420898
 21
-41.772010803223
 31
0.0
  0
TEXT
  5
4CB
100
AcDbEntity
  8
0
  6
CONTINUOUS
 62
          15
100
AcDbText
 10
6.946350084674
 20
-31.491536073387
 30
0.0
 40
0.990000009537
  1
L
 50
0.000002504478
 41
0.954545408022
  7
TXT
100
AcDbText
  0
TEXT
  5
4CC
100
AcDbEntity
  8
0
  6
CONTINUOUS
 62
          15
100
AcDbText
 10
11.966293321979
 20
-31.613919191062
 30
0.0
 40
0.990000009537
  1
N
 50
0.000002504478
 41
0.954545408022
  7
TXT
100
AcDbText
  0
ELLIPSE
  5
4CD
100
AcDbEntity
  8
0
  6
CONTINUOUS
 62
          15
100
AcDbEllipse
 10
-10.36767578125
 20
-34.92652130127
 30
0.0
 11
33.75
 21
0.0
 31
0.0
210
0.0
220
0.0
230
1.0
 40
0.518518518519
 41
0.0
 42
6.2831853071795862
  0
LINE
  5
4CE
100
AcDbEntity
  8
0
  6
CONTINUOUS
 62
          15
100
AcDbLine
 10
-11.61767578125
 20
-17.426528930664
 30
0.0
 11
0.0
 21
0.0
 31
0.0
  0
LINE
  5
4CF
100
AcDbEntity
  8
0
  6
CONTINUOUS
 62
          15
100
AcDbLine
 10
8.347702026367
 20
-32.254753112793
 30
0.0
 11
11.480667114258
 21
-32.254753112793
 31
0.0
  0
LINE
  5
4D0
100
AcDbEntity
  8
0
  6
CONTINUOUS
 62
          15
100
AcDbLine
 10
8.815841674805
 20
-32.866683959961
 30
0.0
 11
10.904495239258
 21
-32.866683959961
 31
0.0
  0
LINE
  5
4D1
100
AcDbEntity
  8
0
  6
CONTINUOUS
 62
          15
100
AcDbLine
 10
9.283996582031
 20
-33.478614807129
 30
0.0
 11
10.328308105469
 21
-33.478614807129
 31
0.0
  0
LINE
  5
4D2
100
AcDbEntity
  8
0
  6
CONTINUOUS
 62
          15
100
AcDbLine
 10
9.752136230469
 20
-29.622611999512
 30
0.0
 11
9.752136230469
 21
-32.254753112793
 31
0.0
  0
LINE
  5
4D3
100
AcDbEntity
  8
0
  6
CONTINUOUS
 62
          15
100
AcDbLine
 10
-28.419784545898
 20
-32.42652130127
 30
0.0
 11
1.564910888672
 21
-32.42652130127
 31
0.0
  0
LINE
  5
4D4
100
AcDbEntity
  8
0
  6
CONTINUOUS
 62
          15
100
AcDbLine
 10
-24.131546020508
 20
-31.121849060059
 30
0.0
 11
-24.998306274414
 21
-30.255088806152
 31
0.0
  0
ELLIPSE
  5
4D5
100
AcDbEntity
  8
0
  6
CONTINUOUS
 62
          15
100
AcDbEllipse
 10
-24.554290771484
 20
-30.683265686035
 30
0.0
 11
0.768914006549423
 21
0.024038522303254
 31
0.0
210
0.0
220
0.0
230
1.0
 40
0.692971446489
 41
0.0
 42
6.2831853071795862
  0
LINE
  5
4D6
100
AcDbEntity
  8
0
  6
CONTINUOUS
 62
          15
100
AcDbLine
 10
-26.679962158203
 20
-31.104621887207
 30
0.0
 11
-27.546722412109
 21
-30.237861633301
 31
0.0
  0
ELLIPSE
  5
4D7
100
AcDbEntity
  8
0
  6
CONTINUOUS
 62
          15
100
AcDbEllipse
 10
-27.10270690918
 20
-30.666038513184
 30
0.0
 11
0.768914006549423
 21
0.024038522303254
 31
0.0
210
0.0
220
0.0
230
1.0
 40
0.692971446489
 41
0.0
 42
6.2831853071795862
  0
LINE
  5
4D8
100
AcDbEntity
  8
0
  6
CONTINUOUS
 62
          15
100
AcDbLine
 10
-21.682022094727
 20
-31.104621887207
 30
0.0
 11
-22.548782348633
 21
-30.237861633301
 31
0.0
  0
ELLIPSE
  5
4D9
100
AcDbEntity
  8
0
  6
CONTINUOUS
 62
          15
100
AcDbEllipse
 10
-22.104766845703
 20
-30.666038513184
 30
0.0
 11
0.768914006549423
 21
0.024038522303254
 31
0.0
210
0.0
220
0.0
230
1.0
 40
0.692971446489
 41
0.0
 42
6.2831853071795862
  0
LINE
  5
4DA
100
AcDbEntity
  8
0
  6
CONTINUOUS
 62
          15
100
AcDbLine
 10
-19.231109619141
 20
-31.104621887207
 30
0.0
 11
-20.097869873047
 21
-30.237861633301
 31
0.0
  0
ELLIPSE
  5
4DB
100
AcDbEntity
  8
0
  6
CONTINUOUS
 62
          15
100
AcDbEllipse
 10
-19.653854370117
 20
-30.666038513184
 30
0.0
 11
0.768914006549423
 21
0.024038522303254
 31
0.0
210
0.0
220
0.0
230
1.0
 40
0.692971446489
 41
0.0
 42
6.2831853071795862
  0
LINE
  5
4DC
100
AcDbEntity
  8
0
  6
CONTINUOUS
 62
          15
100
AcDbLine
 10
-16.68408203125
 20
-31.104621887207
 30
0.0
 11
-17.550842285156
 21
-30.237861633301
 31
0.0
  0
ELLIPSE
  5
4DD
100
AcDbEntity
  8
0
  6
CONTINUOUS
 62
          15
100
AcDbEllipse
 10
-17.106826782227
 20
-30.666038513184
 30
0.0
 11
0.768914006549423
 21
0.024038522303254
 31
0.0
210
0.0
220
0.0
230
1.0
 40
0.692971446489
 41
0.0
 42
6.2831853071795862
  0
LINE
  5
4DE
100
AcDbEntity
  8
0
  6
CONTINUOUS
 62
          15
100
AcDbLine
 10
-14.233169555664
 20
-31.104621887207
 30
0.0
 11
-15.09992980957
 21
-30.237861633301
 31
0.0
  0
ELLIPSE
  5
4DF
100
AcDbEntity
  8
0
  6
CONTINUOUS
 62
          15
100
AcDbEllipse
 10
-14.655914306641
 20
-30.666038513184
 30
0.0
 11
0.768914006549423
 21
0.024038522303254
 31
0.0
210
0.0
220
0.0
230
1.0
 40
0.692971446489
 41
0.0
 42
6.2831853071795862
  0
LINE
  5
4E0
100
AcDbEntity
  8
0
  6
CONTINUOUS
 62
          15
100
AcDbLine
 10
-11.636566162109
 20
-31.117050170898
 30
0.0
 11
-12.503326416016
 21
-30.250289916992
 31
0.0
  0
ELLIPSE
  5
4E1
100
AcDbEntity
  8
0
  6
CONTINUOUS
 62
          15
100
AcDbEllipse
 10
-12.059310913086
 20
-30.678466796875
 30
0.0
 11
0.768914006549423
 21
0.024038522303254
 31
0.0
210
0.0
220
0.0
230
1.0
 40
0.692971446489
 41
0.0
 42
6.2831853071795862
  0
LINE
  5
4E2
100
AcDbEntity
  8
0
  6
CONTINUOUS
 62
          15
100
AcDbLine
 10
-9.012924194336
 20
-31.117050170898
 30
0.0
 11
-9.879684448242
 21
-30.250289916992
 31
0.0
  0
ELLIPSE
  5
4E3
100
AcDbEntity
  8
0
  6
CONTINUOUS
 62
          15
100
AcDbEllipse
 10
-9.435668945313
 20
-30.678466796875
 30
0.0
 11
0.768914006549423
 21
0.024038522303254
 31
0.0
210
0.0
220
0.0
230
1.0
 40
0.692971446489
 41
0.0
 42
6.2831853071795862
  0
LINE
  5
4E4
100
AcDbEntity
  8
0
  6
CONTINUOUS
 62
          15
100
AcDbLine
 10
-6.680786132813
 20
-31.117050170898
 30
0.0
 11
-7.547546386719
 21
-30.250289916992
 31
0.0
  0
ELLIPSE
  5
4E5
100
AcDbEntity
  8
0
  6
CONTINUOUS
 62
          15
100
AcDbEllipse
 10
-7.103530883789
 20
-30.678466796875
 30
0.0
 11
0.768914006549423
 21
0.024038522303254
 31
0.0
210
0.0
220
0.0
230
1.0
 40
0.692971446489
 41
0.0
 42
6.2831853071795862
  0
LINE
  5
4E6
100
AcDbEntity
  8
0
  6
CONTINUOUS
 62
          15
100
AcDbLine
 10
-4.39030456543
 20
-31.117050170898
 30
0.0
 11
-5.257064819336
 21
-30.250289916992
 31
0.0
  0
ELLIPSE
  5
4E7
100
AcDbEntity
  8
0
  6
CONTINUOUS
 62
          15
100
AcDbEllipse
 10
-4.813049316406
 20
-30.678466796875
 30
0.0
 11
0.768914006549423
 21
0.024038522303254
 31
0.0
210
0.0
220
0.0
230
1.0
 40
0.692971446489
 41
0.0
 42
6.2831853071795862
  0
LINE
  5
4E8
100
AcDbEntity
  8
0
  6
CONTINUOUS
 62
          15
100
AcDbLine
 10
-1.725006103516
 20
-31.117050170898
 30
0.0
 11
-2.591766357422
 21
-30.250289916992
 31
0.0
  0
ELLIPSE
  5
4E9
100
AcDbEntity
  8
0
  6
CONTINUOUS
 62
          15
100
AcDbEllipse
 10
-2.147750854492
 20
-30.678466796875
 30
0.0
 11
0.768914006549423
 21
0.024038522303254
 31
0.0
210
0.0
220
0.0
230
1.0
 40
0.692971446489
 41
0.0
 42
6.2831853071795862
  0
LINE
  5
4EA
100
AcDbEntity
  8
0
  6
CONTINUOUS
 62
          15
100
AcDbLine
 10
0.690414428711
 20
-31.117050170898
 30
0.0
 11
-0.176345825195
 21
-30.250289916992
 31
0.0
  0
ELLIPSE
  5
4EB
100
AcDbEntity
  8
0
  6
CONTINUOUS
 62
          15
100
AcDbEllipse
 10
0.267669677734
 20
-30.678466796875
 30
0.0
 11
0.768914006549423
 21
0.024038522303254
 31
0.0
210
0.0
220
0.0
230
1.0
 40
0.692971446489
 41
0.0
 42
6.2831853071795862
  0
LINE
  5
4EC
100
AcDbEntity
  8
0
  6
CONTINUOUS
 62
          15
100
AcDbLine
 10
7.632827758789
 20
-25.431518554688
 30
0.0
 11
6.766067504883
 21
-24.564758300781
 31
0.0
  0
ELLIPSE
  5
4ED
100
AcDbEntity
  8
0
  6
CONTINUOUS
 62
          15
100
AcDbEllipse
 10
7.210083007813
 20
-24.992935180664
 30
0.0
 11
0.768914006549423
 21
0.024038522303254
 31
0.0
210
0.0
220
0.0
230
1.0
 40
0.692971446489
 41
0.0
 42
6.2831853071795862
  0
LINE
  5
4EE
100
AcDbEntity
  8
0
  6
CONTINUOUS
 62
          15
100
AcDbLine
 10
10.17985534668
 20
-25.431518554688
 30
0.0
 11
9.313095092773
 21
-24.564758300781
 31
0.0
  0
ELLIPSE
  5
4EF
100
AcDbEntity
  8
0
  6
CONTINUOUS
 62
          15
100
AcDbEllipse
 10
9.757110595703
 20
-24.992935180664
 30
0.0
 11
0.768914006549423
 21
0.024038522303254
 31
0.0
210
0.0
220
0.0
230
1.0
 40
0.692971446489
 41
0.0
 42
6.2831853071795862
  0
LINE
  5
4F0
100
AcDbEntity
  8
0
  6
CONTINUOUS
 62
          15
100
AcDbLine
 10
12.72688293457
 20
-25.431518554688
 30
0.0
 11
11.860122680664
 21
-24.564758300781
 31
0.0
  0
ELLIPSE
  5
4F1
100
AcDbEntity
  8
0
  6
CONTINUOUS
 62
          15
100
AcDbEllipse
 10
12.304138183594
 20
-24.992935180664
 30
0.0
 11
0.768914006549423
 21
0.024038522303254
 31
0.0
210
0.0
220
0.0
230
1.0
 40
0.692971446489
 41
0.0
 42
6.2831853071795862
  0
LINE
  5
4F2
100
AcDbEntity
  8
0
  6
CONTINUOUS
 62
          15
100
AcDbLine
 10
5.717819213867
 20
-26.680839538574
 30
0.0
 11
13.337814331055
 21
-26.680839538574
 31
0.0
  0
LINE
  5
4F3
100
AcDbEntity
  8
0
  6
CONTINUOUS
 62
          15
100
AcDbLine
 10
-2.817077636719
 20
-33.260345458984
 30
0.0
 11
-1.471481323242
 21
-33.260345458984
 31
0.0
  0
LINE
  5
4F4
100
AcDbEntity
  8
0
  6
CONTINUOUS
 62
          15
100
AcDbLine
 10
-1.471481323242
 20
-33.260345458984
 30
0.0
 11
-1.471481323242
 21
-35.183433532715
 31
0.0
  0
LINE
  5
4F5
100
AcDbEntity
  8
0
  6
CONTINUOUS
 62
          15
100
AcDbLine
 10
-1.471481323242
 20
-35.183433532715
 30
0.0
 11
-2.817077636719
 21
-35.183433532715
 31
0.0
  0
LINE
  5
4F6
100
AcDbEntity
  8
0
  6
CONTINUOUS
 62
          15
100
AcDbLine
 10
-2.817077636719
 20
-35.183433532715
 30
0.0
 11
-2.817077636719
 21
-33.260345458984
 31
0.0
  0
LINE
  5
4F7
100
AcDbEntity
  8
0
  6
CONTINUOUS
 62
          15
100
AcDbLine
 10
-2.817077636719
 20
-34.558433532715
 30
0.0
 11
-1.471481323242
 21
-34.558433532715
 31
0.0
  0
LINE
  5
4F8
100
AcDbEntity
  8
0
  6
CONTINUOUS
 62
          15
100
AcDbLine
 10
-5.497619628906
 20
-33.260345458984
 30
0.0
 11
-4.15202331543
 21
-33.260345458984
 31
0.0
  0
LINE
  5
4F9
100
AcDbEntity
  8
0
  6
CONTINUOUS
 62
          15
100
AcDbLine
 10
-4.15202331543
 20
-33.260345458984
 30
0.0
 11
-4.15202331543
 21
-35.183433532715
 31
0.0
  0
LINE
  5
4FA
100
AcDbEntity
  8
0
  6
CONTINUOUS
 62
          15
100
AcDbLine
 10
-4.15202331543
 20
-35.183433532715
 30
0.0
 11
-5.497619628906
 21
-35.183433532715
 31
0.0
  0
LINE
  5
4FB
100
AcDbEntity
  8
0
  6
CONTINUOUS
 62
          15
100
AcDbLine
 10
-5.497619628906
 20
-35.183433532715
 30
0.0
 11
-5.497619628906
 21
-33.260345458984
 31
0.0
  0
LINE
  5
4FC
100
AcDbEntity
  8
0
  6
CONTINUOUS
 62
          15
100
AcDbLine
 10
-5.497619628906
 20
-34.558433532715
 30
0.0
 11
-4.15202331543
 21
-34.558433532715
 31
0.0
  0
LINE
  5
4FD
100
AcDbEntity
  8
0
  6
CONTINUOUS
 62
          15
100
AcDbLine
 10
-0.36962890625
 20
-33.260345458984
 30
0.0
 11
0.975967407227
 21
-33.260345458984
 31
0.0
  0
LINE
  5
4FE
100
AcDbEntity
  8
0
  6
CONTINUOUS
 62
          15
100
AcDbLine
 10
0.975967407227
 20
-33.260345458984
 30
0.0
 11
0.975967407227
 21
-35.183433532715
 31
0.0
  0
LINE
  5
4FF
100
AcDbEntity
  8
0
  6
CONTINUOUS
 62
          15
100
AcDbLine
 10
0.975967407227
 20
-35.183433532715
 30
0.0
 11
-0.36962890625
 21
-35.183433532715
 31
0.0
  0
LINE
  5
500
100
AcDbEntity
  8
0
  6
CONTINUOUS
 62
          15
100
AcDbLine
 10
-0.36962890625
 20
-35.183433532715
 30
0.0
 11
-0.36962890625
 21
-33.260345458984
 31
0.0
  0
LINE
  5
501
100
AcDbEntity
  8
0
  6
CONTINUOUS
 62
          15
100
AcDbLine
 10
-0.36962890625
 20
-34.558433532715
 30
0.0
 11
0.975967407227
 21
-34.558433532715
 31
0.0
  0
LINE
  5
502
100
AcDbEntity
  8
0
  6
CONTINUOUS
 62
          15
100
AcDbLine
 10
-10.042877197266
 20
-33.261054992676
 30
0.0
 11
-8.697280883789
 21
-33.261054992676
 31
0.0
  0
LINE
  5
503
100
AcDbEntity
  8
0
  6
CONTINUOUS
 62
          15
100
AcDbLine
 10
-8.697280883789
 20
-33.261054992676
 30
0.0
 11
-8.697280883789
 21
-35.184143066406
 31
0.0
  0
LINE
  5
504
100
AcDbEntity
  8
0
  6
CONTINUOUS
 62
          15
100
AcDbLine
 10
-8.697280883789
 20
-35.184143066406
 30
0.0
 11
-10.042877197266
 21
-35.184143066406
 31
0.0
  0
LINE
  5
505
100
AcDbEntity
  8
0
  6
CONTINUOUS
 62
          15
100
AcDbLine
 10
-10.042877197266
 20
-35.184143066406
 30
0.0
 11
-10.042877197266
 21
-33.261054992676
 31
0.0
  0
LINE
  5
506
100
AcDbEntity
  8
0
  6
CONTINUOUS
 62
          15
100
AcDbLine
 10
-10.042877197266
 20
-34.559143066406
 30
0.0
 11
-8.697280883789
 21
-34.559143066406
 31
0.0
  0
LINE
  5
507
100
AcDbEntity
  8
0
  6
CONTINUOUS
 62
          15
100
AcDbLine
 10
-12.723419189453
 20
-33.261054992676
 30
0.0
 11
-11.377822875977
 21
-33.261054992676
 31
0.0
  0
LINE
  5
508
100
AcDbEntity
  8
0
  6
CONTINUOUS
 62
          15
100
AcDbLine
 10
-11.377822875977
 20
-33.261054992676
 30
0.0
 11
-11.377822875977
 21
-35.184143066406
 31
0.0
  0
LINE
  5
509
100
AcDbEntity
  8
0
  6
CONTINUOUS
 62
          15
100
AcDbLine
 10
-11.377822875977
 20
-35.184143066406
 30
0.0
 11
-12.723419189453
 21
-35.184143066406
 31
0.0
  0
LINE
  5
50A
100
AcDbEntity
  8
0
  6
CONTINUOUS
 62
          15
100
AcDbLine
 10
-12.723419189453
 20
-35.184143066406
 30
0.0
 11
-12.723419189453
 21
-33.261054992676
 31
0.0
  0
LINE
  5
50B
100
AcDbEntity
  8
0
  6
CONTINUOUS
 62
          15
100
AcDbLine
 10
-12.723419189453
 20
-34.559143066406
 30
0.0
 11
-11.377822875977
 21
-34.559143066406
 31
0.0
  0
LINE
  5
50C
100
AcDbEntity
  8
0
  6
CONTINUOUS
 62
          15
100
AcDbLine
 10
-7.770248413086
 20
-33.261054992676
 30
0.0
 11
-6.424652099609
 21
-33.261054992676
 31
0.0
  0
LINE
  5
50D
100
AcDbEntity
  8
0
  6
CONTINUOUS
 62
          15
100
AcDbLine
 10
-6.424652099609
 20
-33.261054992676
 30
0.0
 11
-6.424652099609
 21
-35.184143066406
 31
0.0
  0
LINE
  5
50E
100
AcDbEntity
  8
0
  6
CONTINUOUS
 62
          15
100
AcDbLine
 10
-6.424652099609
 20
-35.184143066406
 30
0.0
 11
-7.770248413086
 21
-35.184143066406
 31
0.0
  0
LINE
  5
50F
100
AcDbEntity
  8
0
  6
CONTINUOUS
 62
          15
100
AcDbLine
 10
-7.770248413086
 20
-35.184143066406
 30
0.0
 11
-7.770248413086
 21
-33.261054992676
 31
0.0
  0
LINE
  5
510
100
AcDbEntity
  8
0
  6
CONTINUOUS
 62
          15
100
AcDbLine
 10
-7.770248413086
 20
-34.559143066406
 30
0.0
 11
-6.424652099609
 21
-34.559143066406
 31
0.0
  0
LINE
  5
511
100
AcDbEntity
  8
0
  6
CONTINUOUS
 62
          15
100
AcDbLine
 10
-17.67658996582
 20
-33.261054992676
 30
0.0
 11
-16.330993652344
 21
-33.261054992676
 31
0.0
  0
LINE
  5
512
100
AcDbEntity
  8
0
  6
CONTINUOUS
 62
          15
100
AcDbLine
 10
-16.330993652344
 20
-33.261054992676
 30
0.0
 11
-16.330993652344
 21
-35.184143066406
 31
0.0
  0
LINE
  5
513
100
AcDbEntity
  8
0
  6
CONTINUOUS
 62
          15
100
AcDbLine
 10
-16.330993652344
 20
-35.184143066406
 30
0.0
 11
-17.67658996582
 21
-35.184143066406
 31
0.0
  0
LINE
  5
514
100
AcDbEntity
  8
0
  6
CONTINUOUS
 62
          15
100
AcDbLine
 10
-17.67658996582
 20
-35.184143066406
 30
0.0
 11
-17.67658996582
 21
-33.261054992676
 31
0.0
  0
LINE
  5
515
100
AcDbEntity
  8
0
  6
CONTINUOUS
 62
          15
100
AcDbLine
 10
-17.67658996582
 20
-34.559143066406
 30
0.0
 11
-16.330993652344
 21
-34.559143066406
 31
0.0
  0
LINE
  5
516
100
AcDbEntity
  8
0
  6
CONTINUOUS
 62
          15
100
AcDbLine
 10
-20.357131958008
 20
-33.261054992676
 30
0.0
 11
-19.011535644531
 21
-33.261054992676
 31
0.0
  0
LINE
  5
517
100
AcDbEntity
  8
0
  6
CONTINUOUS
 62
          15
100
AcDbLine
 10
-19.011535644531
 20
-33.261054992676
 30
0.0
 11
-19.011535644531
 21
-35.184143066406
 31
0.0
  0
LINE
  5
518
100
AcDbEntity
  8
0
  6
CONTINUOUS
 62
          15
100
AcDbLine
 10
-19.011535644531
 20
-35.184143066406
 30
0.0
 11
-20.357131958008
 21
-35.184143066406
 31
0.0
  0
LINE
  5
519
100
AcDbEntity
  8
0
  6
CONTINUOUS
 62
          15
100
AcDbLine
 10
-20.357131958008
 20
-35.184143066406
 30
0.0
 11
-20.357131958008
 21
-33.261054992676
 31
0.0
  0
LINE
  5
51A
100
AcDbEntity
  8
0
  6
CONTINUOUS
 62
          15
100
AcDbLine
 10
-20.357131958008
 20
-34.559143066406
 30
0.0
 11
-19.011535644531
 21
-34.559143066406
 31
0.0
  0
LINE
  5
51B
100
AcDbEntity
  8
0
  6
CONTINUOUS
 62
          15
100
AcDbLine
 10
-15.403961181641
 20
-33.261054992676
 30
0.0
 11
-14.058364868164
 21
-33.261054992676
 31
0.0
  0
LINE
  5
51C
100
AcDbEntity
  8
0
  6
CONTINUOUS
 62
          15
100
AcDbLine
 10
-14.058364868164
 20
-33.261054992676
 30
0.0
 11
-14.058364868164
 21
-35.184143066406
 31
0.0
  0
LINE
  5
51D
100
AcDbEntity
  8
0
  6
CONTINUOUS
 62
          15
100
AcDbLine
 10
-14.058364868164
 20
-35.184143066406
 30
0.0
 11
-15.403961181641
 21
-35.184143066406
 31
0.0
  0
LINE
  5
51E
100
AcDbEntity
  8
0
  6
CONTINUOUS
 62
          15
100
AcDbLine
 10
-15.403961181641
 20
-35.184143066406
 30
0.0
 11
-15.403961181641
 21
-33.261054992676
 31
0.0
  0
LINE
  5
51F
100
AcDbEntity
  8
0
  6
CONTINUOUS
 62
          15
100
AcDbLine
 10
-15.403961181641
 20
-34.559143066406
 30
0.0
 11
-14.058364868164
 21
-34.559143066406
 31
0.0
  0
LINE
  5
520
100
AcDbEntity
  8
0
  6
CONTINUOUS
 62
          15
100
AcDbLine
 10
-25.106353759766
 20
-33.261054992676
 30
0.0
 11
-23.760757446289
 21
-33.261054992676
 31
0.0
  0
LINE
  5
521
100
AcDbEntity
  8
0
  6
CONTINUOUS
 62
          15
100
AcDbLine
 10
-23.760757446289
 20
-33.261054992676
 30
0.0
 11
-23.760757446289
 21
-35.184143066406
 31
0.0
  0
LINE
  5
522
100
AcDbEntity
  8
0
  6
CONTINUOUS
 62
          15
100
AcDbLine
 10
-23.760757446289
 20
-35.184143066406
 30
0.0
 11
-25.106353759766
 21
-35.184143066406
 31
0.0
  0
LINE
  5
523
100
AcDbEntity
  8
0
  6
CONTINUOUS
 62
          15
100
AcDbLine
 10
-25.106353759766
 20
-35.184143066406
 30
0.0
 11
-25.106353759766
 21
-33.261054992676
 31
0.0
  0
LINE
  5
524
100
AcDbEntity
  8
0
  6
CONTINUOUS
 62
          15
100
AcDbLine
 10
-25.106353759766
 20
-34.559143066406
 30
0.0
 11
-23.760757446289
 21
-34.559143066406
 31
0.0
  0
LINE
  5
525
100
AcDbEntity
  8
0
  6
CONTINUOUS
 62
          15
100
AcDbLine
 10
-27.786895751953
 20
-33.261054992676
 30
0.0
 11
-26.441299438477
 21
-33.261054992676
 31
0.0
  0
LINE
  5
526
100
AcDbEntity
  8
0
  6
CONTINUOUS
 62
          15
100
AcDbLine
 10
-26.441299438477
 20
-33.261054992676
 30
0.0
 11
-26.441299438477
 21
-35.184143066406
 31
0.0
  0
LINE
  5
527
100
AcDbEntity
  8
0
  6
CONTINUOUS
 62
          15
100
AcDbLine
 10
-26.441299438477
 20
-35.184143066406
 30
0.0
 11
-27.786895751953
 21
-35.184143066406
 31
0.0
  0
LINE
  5
528
100
AcDbEntity
  8
0
  6
CONTINUOUS
 62
          15
100
AcDbLine
 10
-27.786895751953
 20
-35.184143066406
 30
0.0
 11
-27.786895751953
 21
-33.261054992676
 31
0.0
  0
LINE
  5
529
100
AcDbEntity
  8
0
  6
CONTINUOUS
 62
          15
100
AcDbLine
 10
-27.786895751953
 20
-34.559143066406
 30
0.0
 11
-26.441299438477
 21
-34.559143066406
 31
0.0
  0
LINE
  5
52A
100
AcDbEntity
  8
0
  6
CONTINUOUS
 62
          15
100
AcDbLine
 10
-22.833724975586
 20
-33.261054992676
 30
0.0
 11
-21.488128662109
 21
-33.261054992676
 31
0.0
  0
LINE
  5
52B
100
AcDbEntity
  8
0
  6
CONTINUOUS
 62
          15
100
AcDbLine
 10
-21.488128662109
 20
-33.261054992676
 30
0.0
 11
-21.488128662109
 21
-35.184143066406
 31
0.0
  0
LINE
  5
52C
100
AcDbEntity
  8
0
  6
CONTINUOUS
 62
          15
100
AcDbLine
 10
-21.488128662109
 20
-35.184143066406
 30
0.0
 11
-22.833724975586
 21
-35.184143066406
 31
0.0
  0
LINE
  5
52D
100
AcDbEntity
  8
0
  6
CONTINUOUS
 62
          15
100
AcDbLine
 10
-22.833724975586
 20
-35.184143066406
 30
0.0
 11
-22.833724975586
 21
-33.261054992676
 31
0.0
  0
LINE
  5
52E
100
AcDbEntity
  8
0
  6
CONTINUOUS
 62
          15
100
AcDbLine
 10
-22.833724975586
 20
-34.559143066406
 30
0.0
 11
-21.488128662109
 21
-34.559143066406
 31
0.0
  0
LINE
  5
52F
100
AcDbEntity
  8
0
  6
CONTINUOUS
 62
          15
100
AcDbLine
 10
9.093673706055
 20
-27.225746154785
 30
0.0
 11
10.439270019531
 21
-27.225746154785
 31
0.0
  0
LINE
  5
530
100
AcDbEntity
  8
0
  6
CONTINUOUS
 62
          15
100
AcDbLine
 10
10.439270019531
 20
-27.225746154785
 30
0.0
 11
10.439270019531
 21
-29.148834228516
 31
0.0
  0
LINE
  5
531
100
AcDbEntity
  8
0
  6
CONTINUOUS
 62
          15
100
AcDbLine
 10
10.439270019531
 20
-29.148834228516
 30
0.0
 11
9.093673706055
 21
-29.148834228516
 31
0.0
  0
LINE
  5
532
100
AcDbEntity
  8
0
  6
CONTINUOUS
 62
          15
100
AcDbLine
 10
9.093673706055
 20
-29.148834228516
 30
0.0
 11
9.093673706055
 21
-27.225746154785
 31
0.0
  0
LINE
  5
533
100
AcDbEntity
  8
0
  6
CONTINUOUS
 62
          15
100
AcDbLine
 10
9.093673706055
 20
-28.523834228516
 30
0.0
 11
10.439270019531
 21
-28.523834228516
 31
0.0
  0
LINE
  5
534
100
AcDbEntity
  8
0
  6
CONTINUOUS
 62
          15
100
AcDbLine
 10
6.413131713867
 20
-27.225746154785
 30
0.0
 11
7.758728027344
 21
-27.225746154785
 31
0.0
  0
LINE
  5
535
100
AcDbEntity
  8
0
  6
CONTINUOUS
 62
          15
100
AcDbLine
 10
7.758728027344
 20
-27.225746154785
 30
0.0
 11
7.758728027344
 21
-29.148834228516
 31
0.0
  0
LINE
  5
536
100
AcDbEntity
  8
0
  6
CONTINUOUS
 62
          15
100
AcDbLine
 10
7.758728027344
 20
-29.148834228516
 30
0.0
 11
6.413131713867
 21
-29.148834228516
 31
0.0
  0
LINE
  5
537
100
AcDbEntity
  8
0
  6
CONTINUOUS
 62
          15
100
AcDbLine
 10
6.413131713867
 20
-29.148834228516
 30
0.0
 11
6.413131713867
 21
-27.225746154785
 31
0.0
  0
LINE
  5
538
100
AcDbEntity
  8
0
  6
CONTINUOUS
 62
          15
100
AcDbLine
 10
6.413131713867
 20
-28.523834228516
 30
0.0
 11
7.758728027344
 21
-28.523834228516
 31
0.0
  0
LINE
  5
539
100
AcDbEntity
  8
0
  6
CONTINUOUS
 62
          15
100
AcDbLine
 10
11.541122436523
 20
-27.225746154785
 30
0.0
 11
12.88671875
 21
-27.225746154785
 31
0.0
  0
LINE
  5
53A
100
AcDbEntity
  8
0
  6
CONTINUOUS
 62
          15
100
AcDbLine
 10
12.88671875
 20
-27.225746154785
 30
0.0
 11
12.88671875
 21
-29.148834228516
 31
0.0
  0
LINE
  5
53B
100
AcDbEntity
  8
0
  6
CONTINUOUS
 62
          15
100
AcDbLine
 10
12.88671875
 20
-29.148834228516
 30
0.0
 11
11.541122436523
 21
-29.148834228516
 31
0.0
  0
LINE
  5
53C
100
AcDbEntity
  8
0
  6
CONTINUOUS
 62
          15
100
AcDbLine
 10
11.541122436523
 20
-29.148834228516
 30
0.0
 11
11.541122436523
 21
-27.225746154785
 31
0.0
  0
LINE
  5
53D
100
AcDbEntity
  8
0
  6
CONTINUOUS
 62
          15
100
AcDbLine
 10
11.541122436523
 20
-28.523834228516
 30
0.0
 11
12.88671875
 21
-28.523834228516
 31
0.0
  0
ENDBLK
  5
53E
100
AcDbEntity
  8
0
  6
BYBLOCK
 62
           0
100
AcDbBlockEnd
  0
BLOCK
  5
53F
100
AcDbEntity
  8
0
100
AcDbBlockBegin
  2
SDXCI_3
 70
          64
 10
0.0
 20
0.0
 30
0.0
  3
SDXCI_3
  1

  0
LINE
  5
540
100
AcDbEntity
  8
0
  6
CONTINUOUS
 62
          15
100
AcDbLine
 10
-32.952268782112
 20
-33.648923494226
 30
0.0
 11
-32.952268782112
 21
0.74677690164
 31
0.0
  0
LINE
  5
541
100
AcDbEntity
  8
0
  6
CONTINUOUS
 62
          15
100
AcDbLine
 10
-30.744765015557
 20
-29.451019193613
 30
0.0
 11
-30.744765015557
 21
0.74677690164
 31
0.0
  0
LINE
  5
542
100
AcDbEntity
  8
0
  6
CONTINUOUS
 62
          15
100
AcDbLine
 10
-28.506594016244
 20
-28.297172997444
 30
0.0
 11
-28.506594016244
 21
0.74677690164
 31
0.0
  0
LINE
  5
543
100
AcDbEntity
  8
0
  6
CONTINUOUS
 62
          15
100
AcDbLine
 10
-26.237767521703
 20
-27.143326801275
 30
0.0
 11
-26.237767521703
 21
0.74677690164
 31
0.0
  0
LINE
  5
544
100
AcDbEntity
  8
0
  6
CONTINUOUS
 62
          15
100
AcDbLine
 10
-24.152903342354
 20
-25.989480605106
 30
0.0
 11
-24.152903342354
 21
0.74677690164
 31
0.0
  0
ENDBLK
  5
545
100
AcDbEntity
  8
0
  6
BYBLOCK
 62
           0
100
AcDbBlockEnd
  0
ENDSEC
  0
SECTION
  2
ENTITIES
  0
INSERT
  5
25
100
AcDbEntity
  8
0
  6
CONTINUOUS
 62
           7
100
AcDbBlockReference
  2
SDX_1
 10
201.42170715332
 20
147.097274780273
 30
0.0
 41
1.5
 42
1.5
 43
1.5
  0
INSERT
  5
26
100
AcDbEntity
  8
0
  6
CONTINUOUS
 62
           7
100
AcDbBlockReference
  2
SDXPSA_2
 10
201.42170715332
 20
147.097274780273
 30
0.0
  0
INSERT
  5
27
100
AcDbEntity
  8
0
  6
CONTINUOUS
 62
           7
100
AcDbBlockReference
  2
SDXCI_3
 10
68.777420043945
 20
81.886009216309
 30
0.0
 41
1.299999952316
 42
1.299999952316
 43
1.299999952316
  0
LINE
  5
28
100
AcDbEntity
  8
0
  6
CONTINUOUS
 62
          15
100
AcDbLine
 10
20.487213134766
 20
84.888664245605
 30
0.0
 11
20.487213134766
 21
155.62060546875
 31
0.0
  0
LINE
  5
29
100
AcDbEntity
  8
0
  6
CONTINUOUS
 62
          15
100
AcDbLine
 10
117.06761932373
 20
84.956108093262
 30
0.0
 11
20.487213134766
 21
84.888664245605
 31
0.0
  0
LINE
  5
2A
100
AcDbEntity
  8
0
  6
CONTINUOUS
 62
          15
100
AcDbLine
 10
30.181224822998
 20
91.184921264648
 30
0.0
 11
30.181224822998
 21
99.339538574219
 31
0.0
  0
LINE
  5
2B
100
AcDbEntity
  8
0
  6
CONTINUOUS
 62
          15
100
AcDbLine
 10
24.675464630127
 20
91.184921264648
 30
0.0
 11
24.675464630127
 21
99.339538574219
 31
0.0
  0
LINE
  5
2C
100
AcDbEntity
  8
0
  6
CONTINUOUS
 62
          15
100
AcDbLine
 10
79.747444152832
 20
99.339538574219
 30
0.0
 11
24.675464630127
 21
99.339538574219
 31
0.0
  0
LINE
  5
2D
100
AcDbEntity
  8
0
  6
CONTINUOUS
 62
          15
100
AcDbLine
 10
93.358871459961
 20
99.339538574219
 30
0.0
 11
79.747444152832
 21
99.339538574219
 31
0.0
  0
LINE
  5
2E
100
AcDbEntity
  8
0
  6
CONTINUOUS
 62
          15
100
AcDbLine
 10
24.703207015991
 20
91.184921264648
 30
0.0
 11
79.747444152832
 21
91.184921264648
 31
0.0
  0
LINE
  5
2F
100
AcDbEntity
  8
0
  6
CONTINUOUS
 62
          15
100
AcDbLine
 10
84.822715759277
 20
91.184921264648
 30
0.0
 11
93.358871459961
 21
91.184921264648
 31
0.0
  0
LINE
  5
30
100
AcDbEntity
  8
0
  6
CONTINUOUS
 62
          15
100
AcDbLine
 10
79.747444152832
 20
91.184921264648
 30
0.0
 11
84.794982910156
 21
91.184921264648
 31
0.0
  0
CIRCLE
  5
31
100
AcDbEntity
  8
0
  6
CONTINUOUS
 62
          15
100
AcDbCircle
 10
23.177686691284
 20
87.66234588623
 30
0.0
 40
1.095603585243
  0
LINE
  5
32
100
AcDbEntity
  8
0
  6
CONTINUOUS
 62
          15
100
AcDbLine
 10
24.703207015991
 20
91.129447937012
 30
0.0
 11
24.703207015991
 21
89.049179077148
 31
0.0
  0
LINE
  5
33
100
AcDbEntity
  8
0
  6
CONTINUOUS
 62
          15
100
AcDbLine
 10
24.703207015991
 20
89.049179077148
 30
0.0
 11
24.703207015991
 21
86.552871704102
 31
0.0
  0
LINE
  5
34
100
AcDbEntity
  8
0
  6
CONTINUOUS
 62
          15
100
AcDbLine
 10
24.703207015991
 20
86.552871704102
 30
0.0
 11
38.363582611084
 21
86.552871704102
 31
0.0
  0
LINE
  5
35
100
AcDbEntity
  8
0
  6
CONTINUOUS
 62
          15
100
AcDbLine
 10
38.363582611084
 20
86.552871704102
 30
0.0
 11
52.023956298828
 21
86.552871704102
 31
0.0
  0
LINE
  5
36
100
AcDbEntity
  8
0
  6
CONTINUOUS
 62
          15
100
AcDbLine
 10
52.023956298828
 20
86.552871704102
 30
0.0
 11
65.75366973877
 21
86.552871704102
 31
0.0
  0
LINE
  5
37
100
AcDbEntity
  8
0
  6
CONTINUOUS
 62
          15
100
AcDbLine
 10
65.75366973877
 20
86.552871704102
 30
0.0
 11
79.344703674316
 21
86.552871704102
 31
0.0
  0
LINE
  5
38
100
AcDbEntity
  8
0
  6
CONTINUOUS
 62
          15
100
AcDbLine
 10
79.344703674316
 20
86.552871704102
 30
0.0
 11
93.358871459961
 21
86.552871704102
 31
0.0
  0
LINE
  5
39
100
AcDbEntity
  8
0
  6
CONTINUOUS
 62
          15
100
AcDbLine
 10
79.747444152832
 20
89.049179077148
 30
0.0
 11
93.358871459961
 21
89.049179077148
 31
0.0
  0
LINE
  5
3A
100
AcDbEntity
  8
0
  6
CONTINUOUS
 62
          15
100
AcDbLine
 10
24.703207015991
 20
89.049179077148
 30
0.0
 11
79.747444152832
 21
89.049179077148
 31
0.0
  0
TEXT
  5
3B
100
AcDbEntity
  8
0
  6
CONTINUOUS
 62
          15
100
AcDbText
 10
25.410493850708
 20
89.409762978554
 30
0.0
 40
1.331366300583
  1
C 1 2 3 4
 41
1.098090378043
  7
TXT
100
AcDbText
  0
TEXT
  5
3C
100
AcDbEntity
  8
0
  6
CONTINUOUS
 62
          15
100
AcDbText
 10
39.334369659424
 20
89.409762978554
 30
0.0
 40
1.331366300583
  1
C 1 2 3 4
 41
1.098090378043
  7
TXT
100
AcDbText
  0
TEXT
  5
3D
100
AcDbEntity
  8
0
  6
CONTINUOUS
 62
          15
100
AcDbText
 10
53.036346435547
 20
89.409762978554
 30
0.0
 40
1.331366300583
  1
C 1 2 3 4
 41
1.098090378043
  7
TXT
100
AcDbText
  0
TEXT
  5
3E
100
AcDbEntity
  8
0
  6
CONTINUOUS
 62
          15
100
AcDbText
 10
66.655113220215
 20
89.409762978554
 30
0.0
 40
1.331366300583
  1
C 1 2 3 4
 41
1.098090378043
  7
TXT
100
AcDbText
  0
TEXT
  5
3F
100
AcDbEntity
  8
0
  6
CONTINUOUS
 62
          15
100
AcDbText
 10
80.357093811035
 20
89.409762978554
 30
0.0
 40
1.331366300583
  1
C 1 2 3 4
 41
1.098090378043
  7
TXT
100
AcDbText
  0
TEXT
  5
40
100
AcDbEntity
  8
0
  6
CONTINUOUS
 62
          15
100
AcDbText
 10
26.852800369263
 20
87.315632358193
 30
0.0
 40
1.081735372543
  1
SERVICE 1
 41
1.02777760023
  7
TXT
100
AcDbText
  0
TEXT
  5
41
100
AcDbEntity
  8
0
  6
CONTINUOUS
 62
          15
100
AcDbText
 10
40.721210479736
 20
87.315632358193
 30
0.0
 40
1.081735372543
  1
SERVICE 2
 41
1.02777760023
  7
TXT
100
AcDbText
  0
TEXT
  5
42
100
AcDbEntity
  8
0
  6
CONTINUOUS
 62
          15
100
AcDbText
 10
54.450923919678
 20
87.315632358193
 30
0.0
 40
1.081735372543
  1
SERVICE 3
 41
1.02777760023
  7
TXT
100
AcDbText
  0
TEXT
  5
43
100
AcDbEntity
  8
0
  6
CONTINUOUS
 62
          15
100
AcDbText
 10
68.041954040527
 20
87.315632358193
 30
0.0
 40
1.081735372543
  1
SERVICE 4
 41
1.02777760023
  7
TXT
100
AcDbText
  0
TEXT
  5
44
100
AcDbEntity
  8
0
  6
CONTINUOUS
 62
          15
100
AcDbText
 10
81.771667480469
 20
87.315632358193
 30
0.0
 40
1.081735372543
  1
SERVICE 5
 41
1.02777760023
  7
TXT
100
AcDbText
  0
LINE
  5
45
100
AcDbEntity
  8
0
  6
CONTINUOUS
 62
          15
100
AcDbLine
 10
26.306684494019
 20
97.11750793457
 30
0.0
 11
25.572240829468
 21
97.851951599121
 31
0.0
  0
LINE
  5
46
100
AcDbEntity
  8
0
  6
CONTINUOUS
 62
          15
100
AcDbLine
 10
25.434020996094
 20
95.048332214355
 30
0.0
 11
26.444923400879
 21
95.048332214355
 31
0.0
  0
LINE
  5
47
100
AcDbEntity
  8
0
  6
CONTINUOUS
 62
          15
100
AcDbLine
 10
26.444923400879
 20
95.048332214355
 30
0.0
 11
26.444923400879
 21
93.255516052246
 31
0.0
  0
LINE
  5
48
100
AcDbEntity
  8
0
  6
CONTINUOUS
 62
          15
100
AcDbLine
 10
26.444923400879
 20
93.255516052246
 30
0.0
 11
25.434020996094
 21
93.255516052246
 31
0.0
  0
LINE
  5
49
100
AcDbEntity
  8
0
  6
CONTINUOUS
 62
          15
100
AcDbLine
 10
25.434020996094
 20
93.255516052246
 30
0.0
 11
25.434020996094
 21
95.048332214355
 31
0.0
  0
LINE
  5
4A
100
AcDbEntity
  8
0
  6
CONTINUOUS
 62
          15
100
AcDbLine
 10
25.434020996094
 20
93.857215881348
 30
0.0
 11
26.444923400879
 21
93.857215881348
 31
0.0
  0
ELLIPSE
  5
4B
100
AcDbEntity
  8
0
  6
CONTINUOUS
 62
          15
100
AcDbEllipse
 10
25.939472198486
 20
97.484725952148
 30
0.0
 11
0.7355166077613824
 21
-0.000000032150452
 31
0.0
210
0.0
220
0.0
230
1.0
 40
0.624739291281
 41
0.0
 42
6.2831853071795862
  0
LINE
  5
4C
100
AcDbEntity
  8
0
  6
CONTINUOUS
 62
          15
100
AcDbLine
 10
29.176439285278
 20
97.11750793457
 30
0.0
 11
28.441995620728
 21
97.851951599121
 31
0.0
  0
LINE
  5
4D
100
AcDbEntity
  8
0
  6
CONTINUOUS
 62
          15
100
AcDbLine
 10
28.303775787354
 20
95.048332214355
 30
0.0
 11
29.314680099487
 21
95.048332214355
 31
0.0
  0
LINE
  5
4E
100
AcDbEntity
  8
0
  6
CONTINUOUS
 62
          15
100
AcDbLine
 10
29.314680099487
 20
95.048332214355
 30
0.0
 11
29.314680099487
 21
93.255516052246
 31
0.0
  0
LINE
  5
4F
100
AcDbEntity
  8
0
  6
CONTINUOUS
 62
          15
100
AcDbLine
 10
29.314680099487
 20
93.255516052246
 30
0.0
 11
28.303775787354
 21
93.255516052246
 31
0.0
  0
LINE
  5
50
100
AcDbEntity
  8
0
  6
CONTINUOUS
 62
          15
100
AcDbLine
 10
28.303775787354
 20
93.255516052246
 30
0.0
 11
28.303775787354
 21
95.048332214355
 31
0.0
  0
LINE
  5
51
100
AcDbEntity
  8
0
  6
CONTINUOUS
 62
          15
100
AcDbLine
 10
28.303775787354
 20
93.857215881348
 30
0.0
 11
29.314680099487
 21
93.857215881348
 31
0.0
  0
ELLIPSE
  5
52
100
AcDbEntity
  8
0
  6
CONTINUOUS
 62
          15
100
AcDbEllipse
 10
28.809226989746
 20
97.484725952148
 30
0.0
 11
0.7355166077613824
 21
-0.000000032150452
 31
0.0
210
0.0
220
0.0
230
1.0
 40
0.624739291281
 41
0.0
 42
6.2831853071795862
  0
LINE
  5
53
100
AcDbEntity
  8
0
  6
CONTINUOUS
 62
          15
100
AcDbLine
 10
32.08606338501
 20
97.11750793457
 30
0.0
 11
31.35161781311
 21
97.851951599121
 31
0.0
  0
LINE
  5
54
100
AcDbEntity
  8
0
  6
CONTINUOUS
 62
          15
100
AcDbLine
 10
31.213397979736
 20
95.048332214355
 30
0.0
 11
32.224300384521
 21
95.048332214355
 31
0.0
  0
LINE
  5
55
100
AcDbEntity
  8
0
  6
CONTINUOUS
 62
          15
100
AcDbLine
 10
32.224300384521
 20
95.048332214355
 30
0.0
 11
32.224300384521
 21
93.255516052246
 31
0.0
  0
LINE
  5
56
100
AcDbEntity
  8
0
  6
CONTINUOUS
 62
          15
100
AcDbLine
 10
32.224300384521
 20
93.255516052246
 30
0.0
 11
31.213397979736
 21
93.255516052246
 31
0.0
  0
LINE
  5
57
100
AcDbEntity
  8
0
  6
CONTINUOUS
 62
          15
100
AcDbLine
 10
31.213397979736
 20
93.255516052246
 30
0.0
 11
31.213397979736
 21
95.048332214355
 31
0.0
  0
LINE
  5
58
100
AcDbEntity
  8
0
  6
CONTINUOUS
 62
          15
100
AcDbLine
 10
31.213397979736
 20
93.857215881348
 30
0.0
 11
32.224300384521
 21
93.857215881348
 31
0.0
  0
ELLIPSE
  5
59
100
AcDbEntity
  8
0
  6
CONTINUOUS
 62
          15
100
AcDbEllipse
 10
31.718849182129
 20
97.484725952148
 30
0.0
 11
0.7355166077613824
 21
-0.000000032150452
 31
0.0
210
0.0
220
0.0
230
1.0
 40
0.624739291281
 41
0.0
 42
6.2831853071795862
  0
LINE
  5
5A
100
AcDbEntity
  8
0
  6
CONTINUOUS
 62
          15
100
AcDbLine
 10
35.035533905029
 20
97.11750793457
 30
0.0
 11
34.301090240479
 21
97.851951599121
 31
0.0
  0
LINE
  5
5B
100
AcDbEntity
  8
0
  6
CONTINUOUS
 62
          15
100
AcDbLine
 10
34.162872314453
 20
95.048332214355
 30
0.0
 11
35.173774719238
 21
95.048332214355
 31
0.0
  0
LINE
  5
5C
100
AcDbEntity
  8
0
  6
CONTINUOUS
 62
          15
100
AcDbLine
 10
35.173774719238
 20
95.048332214355
 30
0.0
 11
35.173774719238
 21
93.255516052246
 31
0.0
  0
LINE
  5
5D
100
AcDbEntity
  8
0
  6
CONTINUOUS
 62
          15
100
AcDbLine
 10
35.173774719238
 20
93.255516052246
 30
0.0
 11
34.162872314453
 21
93.255516052246
 31
0.0
  0
LINE
  5
5E
100
AcDbEntity
  8
0
  6
CONTINUOUS
 62
          15
100
AcDbLine
 10
34.162872314453
 20
93.255516052246
 30
0.0
 11
34.162872314453
 21
95.048332214355
 31
0.0
  0
LINE
  5
5F
100
AcDbEntity
  8
0
  6
CONTINUOUS
 62
          15
100
AcDbLine
 10
34.162872314453
 20
93.857215881348
 30
0.0
 11
35.173774719238
 21
93.857215881348
 31
0.0
  0
ELLIPSE
  5
60
100
AcDbEntity
  8
0
  6
CONTINUOUS
 62
          15
100
AcDbEllipse
 10
34.668323516846
 20
97.484725952148
 30
0.0
 11
0.7355166077613824
 21
-0.000000032150452
 31
0.0
210
0.0
220
0.0
230
1.0
 40
0.624739291281
 41
0.0
 42
6.2831853071795862
  0
LINE
  5
61
100
AcDbEntity
  8
0
  6
CONTINUOUS
 62
          15
100
AcDbLine
 10
37.745861053467
 20
97.11750793457
 30
0.0
 11
37.011417388916
 21
97.851951599121
 31
0.0
  0
LINE
  5
62
100
AcDbEntity
  8
0
  6
CONTINUOUS
 62
          15
100
AcDbLine
 10
36.873195648193
 20
95.048332214355
 30
0.0
 11
37.884101867676
 21
95.048332214355
 31
0.0
  0
LINE
  5
63
100
AcDbEntity
  8
0
  6
CONTINUOUS
 62
          15
100
AcDbLine
 10
37.884101867676
 20
95.048332214355
 30
0.0
 11
37.884101867676
 21
93.255516052246
 31
0.0
  0
LINE
  5
64
100
AcDbEntity
  8
0
  6
CONTINUOUS
 62
          15
100
AcDbLine
 10
37.884101867676
 20
93.255516052246
 30
0.0
 11
36.873195648193
 21
93.255516052246
 31
0.0
  0
LINE
  5
65
100
AcDbEntity
  8
0
  6
CONTINUOUS
 62
          15
100
AcDbLine
 10
36.873195648193
 20
93.255516052246
 30
0.0
 11
36.873195648193
 21
95.048332214355
 31
0.0
  0
LINE
  5
66
100
AcDbEntity
  8
0
  6
CONTINUOUS
 62
          15
100
AcDbLine
 10
36.873195648193
 20
93.857215881348
 30
0.0
 11
37.884101867676
 21
93.857215881348
 31
0.0
  0
ELLIPSE
  5
67
100
AcDbEntity
  8
0
  6
CONTINUOUS
 62
          15
100
AcDbEllipse
 10
37.378646850586
 20
97.484725952148
 30
0.0
 11
0.7355166077613824
 21
-0.000000032150452
 31
0.0
210
0.0
220
0.0
230
1.0
 40
0.624739291281
 41
0.0
 42
6.2831853071795862
  0
LINE
  5
68
100
AcDbEntity
  8
0
  6
CONTINUOUS
 62
          15
100
AcDbLine
 10
40.217041015625
 20
97.11750793457
 30
0.0
 11
39.482597351074
 21
97.851951599121
 31
0.0
  0
LINE
  5
69
100
AcDbEntity
  8
0
  6
CONTINUOUS
 62
          15
100
AcDbLine
 10
39.344379425049
 20
95.048332214355
 30
0.0
 11
40.355281829834
 21
95.048332214355
 31
0.0
  0
LINE
  5
6A
100
AcDbEntity
  8
0
  6
CONTINUOUS
 62
          15
100
AcDbLine
 10
40.355281829834
 20
95.048332214355
 30
0.0
 11
40.355281829834
 21
93.255516052246
 31
0.0
  0
LINE
  5
6B
100
AcDbEntity
  8
0
  6
CONTINUOUS
 62
          15
100
AcDbLine
 10
40.355281829834
 20
93.255516052246
 30
0.0
 11
39.344379425049
 21
93.255516052246
 31
0.0
  0
LINE
  5
6C
100
AcDbEntity
  8
0
  6
CONTINUOUS
 62
          15
100
AcDbLine
 10
39.344379425049
 20
93.255516052246
 30
0.0
 11
39.344379425049
 21
95.048332214355
 31
0.0
  0
LINE
  5
6D
100
AcDbEntity
  8
0
  6
CONTINUOUS
 62
          15
100
AcDbLine
 10
39.344379425049
 20
93.857215881348
 30
0.0
 11
40.355281829834
 21
93.857215881348
 31
0.0
  0
ELLIPSE
  5
6E
100
AcDbEntity
  8
0
  6
CONTINUOUS
 62
          15
100
AcDbEllipse
 10
39.849830627441
 20
97.484725952148
 30
0.0
 11
0.7355166077613824
 21
-0.000000032150452
 31
0.0
210
0.0
220
0.0
230
1.0
 40
0.624739291281
 41
0.0
 42
6.2831853071795862
  0
LINE
  5
6F
100
AcDbEntity
  8
0
  6
CONTINUOUS
 62
          15
100
AcDbLine
 10
43.086799621582
 20
97.11750793457
 30
0.0
 11
42.352355957031
 21
97.851951599121
 31
0.0
  0
LINE
  5
70
100
AcDbEntity
  8
0
  6
CONTINUOUS
 62
          15
100
AcDbLine
 10
42.214134216309
 20
95.048332214355
 30
0.0
 11
43.225036621094
 21
95.048332214355
 31
0.0
  0
LINE
  5
71
100
AcDbEntity
  8
0
  6
CONTINUOUS
 62
          15
100
AcDbLine
 10
43.225036621094
 20
95.048332214355
 30
0.0
 11
43.225036621094
 21
93.255516052246
 31
0.0
  0
LINE
  5
72
100
AcDbEntity
  8
0
  6
CONTINUOUS
 62
          15
100
AcDbLine
 10
43.225036621094
 20
93.255516052246
 30
0.0
 11
42.214134216309
 21
93.255516052246
 31
0.0
  0
LINE
  5
73
100
AcDbEntity
  8
0
  6
CONTINUOUS
 62
          15
100
AcDbLine
 10
42.214134216309
 20
93.255516052246
 30
0.0
 11
42.214134216309
 21
95.048332214355
 31
0.0
  0
LINE
  5
74
100
AcDbEntity
  8
0
  6
CONTINUOUS
 62
          15
100
AcDbLine
 10
42.214134216309
 20
93.857215881348
 30
0.0
 11
43.225036621094
 21
93.857215881348
 31
0.0
  0
ELLIPSE
  5
75
100
AcDbEntity
  8
0
  6
CONTINUOUS
 62
          15
100
AcDbEllipse
 10
42.719585418701
 20
97.484725952148
 30
0.0
 11
0.7355166077613824
 21
-0.000000032150452
 31
0.0
210
0.0
220
0.0
230
1.0
 40
0.624739291281
 41
0.0
 42
6.2831853071795862
  0
LINE
  5
76
100
AcDbEntity
  8
0
  6
CONTINUOUS
 62
          15
100
AcDbLine
 10
45.996417999268
 20
97.11750793457
 30
0.0
 11
45.261974334717
 21
97.851951599121
 31
0.0
  0
LINE
  5
77
100
AcDbEntity
  8
0
  6
CONTINUOUS
 62
          15
100
AcDbLine
 10
45.123756408691
 20
95.048332214355
 30
0.0
 11
46.134658813477
 21
95.048332214355
 31
0.0
  0
LINE
  5
78
100
AcDbEntity
  8
0
  6
CONTINUOUS
 62
          15
100
AcDbLine
 10
46.134658813477
 20
95.048332214355
 30
0.0
 11
46.134658813477
 21
93.255516052246
 31
0.0
  0
LINE
  5
79
100
AcDbEntity
  8
0
  6
CONTINUOUS
 62
          15
100
AcDbLine
 10
46.134658813477
 20
93.255516052246
 30
0.0
 11
45.123756408691
 21
93.255516052246
 31
0.0
  0
LINE
  5
7A
100
AcDbEntity
  8
0
  6
CONTINUOUS
 62
          15
100
AcDbLine
 10
45.123756408691
 20
93.255516052246
 30
0.0
 11
45.123756408691
 21
95.048332214355
 31
0.0
  0
LINE
  5
7B
100
AcDbEntity
  8
0
  6
CONTINUOUS
 62
          15
100
AcDbLine
 10
45.123756408691
 20
93.857215881348
 30
0.0
 11
46.134658813477
 21
93.857215881348
 31
0.0
  0
ELLIPSE
  5
7C
100
AcDbEntity
  8
0
  6
CONTINUOUS
 62
          15
100
AcDbEllipse
 10
45.629207611084
 20
97.484725952148
 30
0.0
 11
0.7355166077613824
 21
-0.000000032150452
 31
0.0
210
0.0
220
0.0
230
1.0
 40
0.624739291281
 41
0.0
 42
6.2831853071795862
  0
LINE
  5
7D
100
AcDbEntity
  8
0
  6
CONTINUOUS
 62
          15
100
AcDbLine
 10
48.945892333984
 20
97.11750793457
 30
0.0
 11
48.211448669434
 21
97.851951599121
 31
0.0
  0
LINE
  5
7E
100
AcDbEntity
  8
0
  6
CONTINUOUS
 62
          15
100
AcDbLine
 10
48.073230743408
 20
95.048332214355
 30
0.0
 11
49.084133148193
 21
95.048332214355
 31
0.0
  0
LINE
  5
7F
100
AcDbEntity
  8
0
  6
CONTINUOUS
 62
          15
100
AcDbLine
 10
49.084133148193
 20
95.048332214355
 30
0.0
 11
49.084133148193
 21
93.255516052246
 31
0.0
  0
LINE
  5
80
100
AcDbEntity
  8
0
  6
CONTINUOUS
 62
          15
100
AcDbLine
 10
49.084133148193
 20
93.255516052246
 30
0.0
 11
48.073230743408
 21
93.255516052246
 31
0.0
  0
LINE
  5
81
100
AcDbEntity
  8
0
  6
CONTINUOUS
 62
          15
100
AcDbLine
 10
48.073230743408
 20
93.255516052246
 30
0.0
 11
48.073230743408
 21
95.048332214355
 31
0.0
  0
LINE
  5
82
100
AcDbEntity
  8
0
  6
CONTINUOUS
 62
          15
100
AcDbLine
 10
48.073230743408
 20
93.857215881348
 30
0.0
 11
49.084133148193
 21
93.857215881348
 31
0.0
  0
ELLIPSE
  5
83
100
AcDbEntity
  8
0
  6
CONTINUOUS
 62
          15
100
AcDbEllipse
 10
48.578681945801
 20
97.484725952148
 30
0.0
 11
0.7355166077613824
 21
-0.000000032150452
 31
0.0
210
0.0
220
0.0
230
1.0
 40
0.624739291281
 41
0.0
 42
6.2831853071795862
  0
LINE
  5
84
100
AcDbEntity
  8
0
  6
CONTINUOUS
 62
          15
100
AcDbLine
 10
51.656219482422
 20
97.11750793457
 30
0.0
 11
50.921775817871
 21
97.851951599121
 31
0.0
  0
LINE
  5
85
100
AcDbEntity
  8
0
  6
CONTINUOUS
 62
          15
100
AcDbLine
 10
50.783554077148
 20
95.048332214355
 30
0.0
 11
51.794456481934
 21
95.048332214355
 31
0.0
  0
LINE
  5
86
100
AcDbEntity
  8
0
  6
CONTINUOUS
 62
          15
100
AcDbLine
 10
51.794456481934
 20
95.048332214355
 30
0.0
 11
51.794456481934
 21
93.255516052246
 31
0.0
  0
LINE
  5
87
100
AcDbEntity
  8
0
  6
CONTINUOUS
 62
          15
100
AcDbLine
 10
51.794456481934
 20
93.255516052246
 30
0.0
 11
50.783554077148
 21
93.255516052246
 31
0.0
  0
LINE
  5
88
100
AcDbEntity
  8
0
  6
CONTINUOUS
 62
          15
100
AcDbLine
 10
50.783554077148
 20
93.255516052246
 30
0.0
 11
50.783554077148
 21
95.048332214355
 31
0.0
  0
LINE
  5
89
100
AcDbEntity
  8
0
  6
CONTINUOUS
 62
          15
100
AcDbLine
 10
50.783554077148
 20
93.857215881348
 30
0.0
 11
51.794456481934
 21
93.857215881348
 31
0.0
  0
ELLIPSE
  5
8A
100
AcDbEntity
  8
0
  6
CONTINUOUS
 62
          15
100
AcDbEllipse
 10
51.289005279541
 20
97.484725952148
 30
0.0
 11
0.7355166077613824
 21
-0.000000032150452
 31
0.0
210
0.0
220
0.0
230
1.0
 40
0.624739291281
 41
0.0
 42
6.2831853071795862
  0
LINE
  5
8B
100
AcDbEntity
  8
0
  6
CONTINUOUS
 62
          15
100
AcDbLine
 10
53.928112030029
 20
97.11750793457
 30
0.0
 11
53.193668365479
 21
97.851951599121
 31
0.0
  0
LINE
  5
8C
100
AcDbEntity
  8
0
  6
CONTINUOUS
 62
          15
100
AcDbLine
 10
53.055450439453
 20
95.048332214355
 30
0.0
 11
54.066352844238
 21
95.048332214355
 31
0.0
  0
LINE
  5
8D
100
AcDbEntity
  8
0
  6
CONTINUOUS
 62
          15
100
AcDbLine
 10
54.066352844238
 20
95.048332214355
 30
0.0
 11
54.066352844238
 21
93.255516052246
 31
0.0
  0
LINE
  5
8E
100
AcDbEntity
  8
0
  6
CONTINUOUS
 62
          15
100
AcDbLine
 10
54.066352844238
 20
93.255516052246
 30
0.0
 11
53.055450439453
 21
93.255516052246
 31
0.0
  0
LINE
  5
8F
100
AcDbEntity
  8
0
  6
CONTINUOUS
 62
          15
100
AcDbLine
 10
53.055450439453
 20
93.255516052246
 30
0.0
 11
53.055450439453
 21
95.048332214355
 31
0.0
  0
LINE
  5
90
100
AcDbEntity
  8
0
  6
CONTINUOUS
 62
          15
100
AcDbLine
 10
53.055450439453
 20
93.857215881348
 30
0.0
 11
54.066352844238
 21
93.857215881348
 31
0.0
  0
ELLIPSE
  5
91
100
AcDbEntity
  8
0
  6
CONTINUOUS
 62
          15
100
AcDbEllipse
 10
53.560901641846
 20
97.484725952148
 30
0.0
 11
0.7355166077613824
 21
-0.000000032150452
 31
0.0
210
0.0
220
0.0
230
1.0
 40
0.624739291281
 41
0.0
 42
6.2831853071795862
  0
LINE
  5
92
100
AcDbEntity
  8
0
  6
CONTINUOUS
 62
          15
100
AcDbLine
 10
56.797870635986
 20
97.11750793457
 30
0.0
 11
56.063426971436
 21
97.851951599121
 31
0.0
  0
LINE
  5
93
100
AcDbEntity
  8
0
  6
CONTINUOUS
 62
          15
100
AcDbLine
 10
55.925205230713
 20
95.048332214355
 30
0.0
 11
56.936107635498
 21
95.048332214355
 31
0.0
  0
LINE
  5
94
100
AcDbEntity
  8
0
  6
CONTINUOUS
 62
          15
100
AcDbLine
 10
56.936107635498
 20
95.048332214355
 30
0.0
 11
56.936107635498
 21
93.255516052246
 31
0.0
  0
LINE
  5
95
100
AcDbEntity
  8
0
  6
CONTINUOUS
 62
          15
100
AcDbLine
 10
56.936107635498
 20
93.255516052246
 30
0.0
 11
55.925205230713
 21
93.255516052246
 31
0.0
  0
LINE
  5
96
100
AcDbEntity
  8
0
  6
CONTINUOUS
 62
          15
100
AcDbLine
 10
55.925205230713
 20
93.255516052246
 30
0.0
 11
55.925205230713
 21
95.048332214355
 31
0.0
  0
LINE
  5
97
100
AcDbEntity
  8
0
  6
CONTINUOUS
 62
          15
100
AcDbLine
 10
55.925205230713
 20
93.857215881348
 30
0.0
 11
56.936107635498
 21
93.857215881348
 31
0.0
  0
ELLIPSE
  5
98
100
AcDbEntity
  8
0
  6
CONTINUOUS
 62
          15
100
AcDbEllipse
 10
56.430656433105
 20
97.484725952148
 30
0.0
 11
0.7355166077613824
 21
-0.000000032150452
 31
0.0
210
0.0
220
0.0
230
1.0
 40
0.624739291281
 41
0.0
 42
6.2831853071795862
  0
LINE
  5
99
100
AcDbEntity
  8
0
  6
CONTINUOUS
 62
          15
100
AcDbLine
 10
59.707492828369
 20
97.11750793457
 30
0.0
 11
58.973049163818
 21
97.851951599121
 31
0.0
  0
LINE
  5
9A
100
AcDbEntity
  8
0
  6
CONTINUOUS
 62
          15
100
AcDbLine
 10
58.834827423096
 20
95.048332214355
 30
0.0
 11
59.845729827881
 21
95.048332214355
 31
0.0
  0
LINE
  5
9B
100
AcDbEntity
  8
0
  6
CONTINUOUS
 62
          15
100
AcDbLine
 10
59.845729827881
 20
95.048332214355
 30
0.0
 11
59.845729827881
 21
93.255516052246
 31
0.0
  0
LINE
  5
9C
100
AcDbEntity
  8
0
  6
CONTINUOUS
 62
          15
100
AcDbLine
 10
59.845729827881
 20
93.255516052246
 30
0.0
 11
58.834827423096
 21
93.255516052246
 31
0.0
  0
LINE
  5
9D
100
AcDbEntity
  8
0
  6
CONTINUOUS
 62
          15
100
AcDbLine
 10
58.834827423096
 20
93.255516052246
 30
0.0
 11
58.834827423096
 21
95.048332214355
 31
0.0
  0
LINE
  5
9E
100
AcDbEntity
  8
0
  6
CONTINUOUS
 62
          15
100
AcDbLine
 10
58.834827423096
 20
93.857215881348
 30
0.0
 11
59.845729827881
 21
93.857215881348
 31
0.0
  0
ELLIPSE
  5
9F
100
AcDbEntity
  8
0
  6
CONTINUOUS
 62
          15
100
AcDbEllipse
 10
59.340278625488
 20
97.484725952148
 30
0.0
 11
0.7355166077613824
 21
-0.000000032150452
 31
0.0
210
0.0
220
0.0
230
1.0
 40
0.624739291281
 41
0.0
 42
6.2831853071795862
  0
LINE
  5
A0
100
AcDbEntity
  8
0
  6
CONTINUOUS
 62
          15
100
AcDbLine
 10
62.656963348389
 20
97.11750793457
 30
0.0
 11
61.922519683838
 21
97.851951599121
 31
0.0
  0
LINE
  5
A1
100
AcDbEntity
  8
0
  6
CONTINUOUS
 62
          15
100
AcDbLine
 10
61.784301757813
 20
95.048332214355
 30
0.0
 11
62.795204162598
 21
95.048332214355
 31
0.0
  0
LINE
  5
A2
100
AcDbEntity
  8
0
  6
CONTINUOUS
 62
          15
100
AcDbLine
 10
62.795204162598
 20
95.048332214355
 30
0.0
 11
62.795204162598
 21
93.255516052246
 31
0.0
  0
LINE
  5
A3
100
AcDbEntity
  8
0
  6
CONTINUOUS
 62
          15
100
AcDbLine
 10
62.795204162598
 20
93.255516052246
 30
0.0
 11
61.784301757813
 21
93.255516052246
 31
0.0
  0
LINE
  5
A4
100
AcDbEntity
  8
0
  6
CONTINUOUS
 62
          15
100
AcDbLine
 10
61.784301757813
 20
93.255516052246
 30
0.0
 11
61.784301757813
 21
95.048332214355
 31
0.0
  0
LINE
  5
A5
100
AcDbEntity
  8
0
  6
CONTINUOUS
 62
          15
100
AcDbLine
 10
61.784301757813
 20
93.857215881348
 30
0.0
 11
62.795204162598
 21
93.857215881348
 31
0.0
  0
ELLIPSE
  5
A6
100
AcDbEntity
  8
0
  6
CONTINUOUS
 62
          15
100
AcDbEllipse
 10
62.289752960205
 20
97.484725952148
 30
0.0
 11
0.7355166077613824
 21
-0.000000032150452
 31
0.0
210
0.0
220
0.0
230
1.0
 40
0.624739291281
 41
0.0
 42
6.2831853071795862
  0
LINE
  5
A7
100
AcDbEntity
  8
0
  6
CONTINUOUS
 62
          15
100
AcDbLine
 10
65.367286682129
 20
97.11750793457
 30
0.0
 11
64.632843017578
 21
97.851951599121
 31
0.0
  0
LINE
  5
A8
100
AcDbEntity
  8
0
  6
CONTINUOUS
 62
          15
100
AcDbLine
 10
64.494621276855
 20
95.048332214355
 30
0.0
 11
65.505523681641
 21
95.048332214355
 31
0.0
  0
LINE
  5
A9
100
AcDbEntity
  8
0
  6
CONTINUOUS
 62
          15
100
AcDbLine
 10
65.505523681641
 20
95.048332214355
 30
0.0
 11
65.505523681641
 21
93.255516052246
 31
0.0
  0
LINE
  5
AA
100
AcDbEntity
  8
0
  6
CONTINUOUS
 62
          15
100
AcDbLine
 10
65.505523681641
 20
93.255516052246
 30
0.0
 11
64.494621276855
 21
93.255516052246
 31
0.0
  0
LINE
  5
AB
100
AcDbEntity
  8
0
  6
CONTINUOUS
 62
          15
100
AcDbLine
 10
64.494621276855
 20
93.255516052246
 30
0.0
 11
64.494621276855
 21
95.048332214355
 31
0.0
  0
LINE
  5
AC
100
AcDbEntity
  8
0
  6
CONTINUOUS
 62
          15
100
AcDbLine
 10
64.494621276855
 20
93.857215881348
 30
0.0
 11
65.505523681641
 21
93.857215881348
 31
0.0
  0
ELLIPSE
  5
AD
100
AcDbEntity
  8
0
  6
CONTINUOUS
 62
          15
100
AcDbEllipse
 10
65.000076293945
 20
97.484725952148
 30
0.0
 11
0.7355166077613824
 21
-0.000000032150452
 31
0.0
210
0.0
220
0.0
230
1.0
 40
0.624739291281
 41
0.0
 42
6.2831853071795862
  0
LINE
  5
AE
100
AcDbEntity
  8
0
  6
CONTINUOUS
 62
          15
100
AcDbLine
 10
67.559463500977
 20
97.11750793457
 30
0.0
 11
66.825019836426
 21
97.851951599121
 31
0.0
  0
LINE
  5
AF
100
AcDbEntity
  8
0
  6
CONTINUOUS
 62
          15
100
AcDbLine
 10
66.686798095703
 20
95.048332214355
 30
0.0
 11
67.697700500488
 21
95.048332214355
 31
0.0
  0
LINE
  5
B0
100
AcDbEntity
  8
0
  6
CONTINUOUS
 62
          15
100
AcDbLine
 10
67.697700500488
 20
95.048332214355
 30
0.0
 11
67.697700500488
 21
93.255516052246
 31
0.0
  0
LINE
  5
B1
100
AcDbEntity
  8
0
  6
CONTINUOUS
 62
          15
100
AcDbLine
 10
67.697700500488
 20
93.255516052246
 30
0.0
 11
66.686798095703
 21
93.255516052246
 31
0.0
  0
LINE
  5
B2
100
AcDbEntity
  8
0
  6
CONTINUOUS
 62
          15
100
AcDbLine
 10
66.686798095703
 20
93.255516052246
 30
0.0
 11
66.686798095703
 21
95.048332214355
 31
0.0
  0
LINE
  5
B3
100
AcDbEntity
  8
0
  6
CONTINUOUS
 62
          15
100
AcDbLine
 10
66.686798095703
 20
93.857215881348
 30
0.0
 11
67.697700500488
 21
93.857215881348
 31
0.0
  0
ELLIPSE
  5
B4
100
AcDbEntity
  8
0
  6
CONTINUOUS
 62
          15
100
AcDbEllipse
 10
67.192253112793
 20
97.484725952148
 30
0.0
 11
0.7355166077613824
 21
-0.000000032150452
 31
0.0
210
0.0
220
0.0
230
1.0
 40
0.624739291281
 41
0.0
 42
6.2831853071795862
  0
LINE
  5
B5
100
AcDbEntity
  8
0
  6
CONTINUOUS
 62
          15
100
AcDbLine
 10
70.429222106934
 20
97.11750793457
 30
0.0
 11
69.694778442383
 21
97.851951599121
 31
0.0
  0
LINE
  5
B6
100
AcDbEntity
  8
0
  6
CONTINUOUS
 62
          15
100
AcDbLine
 10
69.55655670166
 20
95.048332214355
 30
0.0
 11
70.567459106445
 21
95.048332214355
 31
0.0
  0
LINE
  5
B7
100
AcDbEntity
  8
0
  6
CONTINUOUS
 62
          15
100
AcDbLine
 10
70.567459106445
 20
95.048332214355
 30
0.0
 11
70.567459106445
 21
93.255516052246
 31
0.0
  0
LINE
  5
B8
100
AcDbEntity
  8
0
  6
CONTINUOUS
 62
          15
100
AcDbLine
 10
70.567459106445
 20
93.255516052246
 30
0.0
 11
69.55655670166
 21
93.255516052246
 31
0.0
  0
LINE
  5
B9
100
AcDbEntity
  8
0
  6
CONTINUOUS
 62
          15
100
AcDbLine
 10
69.55655670166
 20
93.255516052246
 30
0.0
 11
69.55655670166
 21
95.048332214355
 31
0.0
  0
LINE
  5
BA
100
AcDbEntity
  8
0
  6
CONTINUOUS
 62
          15
100
AcDbLine
 10
69.55655670166
 20
93.857215881348
 30
0.0
 11
70.567459106445
 21
93.857215881348
 31
0.0
  0
ELLIPSE
  5
BB
100
AcDbEntity
  8
0
  6
CONTINUOUS
 62
          15
100
AcDbEllipse
 10
70.062004089355
 20
97.484725952148
 30
0.0
 11
0.7355166077613824
 21
-0.000000032150452
 31
0.0
210
0.0
220
0.0
230
1.0
 40
0.624739291281
 41
0.0
 42
6.2831853071795862
  0
LINE
  5
BC
100
AcDbEntity
  8
0
  6
CONTINUOUS
 62
          15
100
AcDbLine
 10
73.338844299316
 20
97.11750793457
 30
0.0
 11
72.604400634766
 21
97.851951599121
 31
0.0
  0
LINE
  5
BD
100
AcDbEntity
  8
0
  6
CONTINUOUS
 62
          15
100
AcDbLine
 10
72.466178894043
 20
95.048332214355
 30
0.0
 11
73.477081298828
 21
95.048332214355
 31
0.0
  0
LINE
  5
BE
100
AcDbEntity
  8
0
  6
CONTINUOUS
 62
          15
100
AcDbLine
 10
73.477081298828
 20
95.048332214355
 30
0.0
 11
73.477081298828
 21
93.255516052246
 31
0.0
  0
LINE
  5
BF
100
AcDbEntity
  8
0
  6
CONTINUOUS
 62
          15
100
AcDbLine
 10
73.477081298828
 20
93.255516052246
 30
0.0
 11
72.466178894043
 21
93.255516052246
 31
0.0
  0
LINE
  5
C0
100
AcDbEntity
  8
0
  6
CONTINUOUS
 62
          15
100
AcDbLine
 10
72.466178894043
 20
93.255516052246
 30
0.0
 11
72.466178894043
 21
95.048332214355
 31
0.0
  0
LINE
  5
C1
100
AcDbEntity
  8
0
  6
CONTINUOUS
 62
          15
100
AcDbLine
 10
72.466178894043
 20
93.857215881348
 30
0.0
 11
73.477081298828
 21
93.857215881348
 31
0.0
  0
ELLIPSE
  5
C2
100
AcDbEntity
  8
0
  6
CONTINUOUS
 62
          15
100
AcDbEllipse
 10
72.971626281738
 20
97.484725952148
 30
0.0
 11
0.7355166077613824
 21
-0.000000032150452
 31
0.0
210
0.0
220
0.0
230
1.0
 40
0.624739291281
 41
0.0
 42
6.2831853071795862
  0
LINE
  5
C3
100
AcDbEntity
  8
0
  6
CONTINUOUS
 62
          15
100
AcDbLine
 10
76.288314819336
 20
97.11750793457
 30
0.0
 11
75.553871154785
 21
97.851951599121
 31
0.0
  0
LINE
  5
C4
100
AcDbEntity
  8
0
  6
CONTINUOUS
 62
          15
100
AcDbLine
 10
75.415649414063
 20
95.048332214355
 30
0.0
 11
76.426551818848
 21
95.048332214355
 31
0.0
  0
LINE
  5
C5
100
AcDbEntity
  8
0
  6
CONTINUOUS
 62
          15
100
AcDbLine
 10
76.426551818848
 20
95.048332214355
 30
0.0
 11
76.426551818848
 21
93.255516052246
 31
0.0
  0
LINE
  5
C6
100
AcDbEntity
  8
0
  6
CONTINUOUS
 62
          15
100
AcDbLine
 10
76.426551818848
 20
93.255516052246
 30
0.0
 11
75.415649414063
 21
93.255516052246
 31
0.0
  0
LINE
  5
C7
100
AcDbEntity
  8
0
  6
CONTINUOUS
 62
          15
100
AcDbLine
 10
75.415649414063
 20
93.255516052246
 30
0.0
 11
75.415649414063
 21
95.048332214355
 31
0.0
  0
LINE
  5
C8
100
AcDbEntity
  8
0
  6
CONTINUOUS
 62
          15
100
AcDbLine
 10
75.415649414063
 20
93.857215881348
 30
0.0
 11
76.426551818848
 21
93.857215881348
 31
0.0
  0
ELLIPSE
  5
C9
100
AcDbEntity
  8
0
  6
CONTINUOUS
 62
          15
100
AcDbEllipse
 10
75.921104431152
 20
97.484725952148
 30
0.0
 11
0.7355166077613824
 21
-0.000000032150452
 31
0.0
210
0.0
220
0.0
230
1.0
 40
0.624739291281
 41
0.0
 42
6.2831853071795862
  0
LINE
  5
CA
100
AcDbEntity
  8
0
  6
CONTINUOUS
 62
          15
100
AcDbLine
 10
78.998641967773
 20
97.11750793457
 30
0.0
 11
78.264198303223
 21
97.851951599121
 31
0.0
  0
LINE
  5
CB
100
AcDbEntity
  8
0
  6
CONTINUOUS
 62
          15
100
AcDbLine
 10
78.1259765625
 20
95.048332214355
 30
0.0
 11
79.136878967285
 21
95.048332214355
 31
0.0
  0
LINE
  5
CC
100
AcDbEntity
  8
0
  6
CONTINUOUS
 62
          15
100
AcDbLine
 10
79.136878967285
 20
95.048332214355
 30
0.0
 11
79.136878967285
 21
93.255516052246
 31
0.0
  0
LINE
  5
CD
100
AcDbEntity
  8
0
  6
CONTINUOUS
 62
          15
100
AcDbLine
 10
79.136878967285
 20
93.255516052246
 30
0.0
 11
78.1259765625
 21
93.255516052246
 31
0.0
  0
LINE
  5
CE
100
AcDbEntity
  8
0
  6
CONTINUOUS
 62
          15
100
AcDbLine
 10
78.1259765625
 20
93.255516052246
 30
0.0
 11
78.1259765625
 21
95.048332214355
 31
0.0
  0
LINE
  5
CF
100
AcDbEntity
  8
0
  6
CONTINUOUS
 62
          15
100
AcDbLine
 10
78.1259765625
 20
93.857215881348
 30
0.0
 11
79.136878967285
 21
93.857215881348
 31
0.0
  0
ELLIPSE
  5
D0
100
AcDbEntity
  8
0
  6
CONTINUOUS
 62
          15
100
AcDbEllipse
 10
78.631423950195
 20
97.484725952148
 30
0.0
 11
0.7355166077613824
 21
-0.000000032150452
 31
0.0
210
0.0
220
0.0
230
1.0
 40
0.624739291281
 41
0.0
 42
6.2831853071795862
  0
LINE
  5
D1
100
AcDbEntity
  8
0
  6
CONTINUOUS
 62
          15
100
AcDbLine
 10
66.155944824219
 20
86.552871704102
 30
0.0
 11
66.155944824219
 21
99.339538574219
 31
0.0
  0
LINE
  5
D2
100
AcDbEntity
  8
0
  6
CONTINUOUS
 62
          15
100
AcDbLine
 10
79.747444152832
 20
86.552871704102
 30
0.0
 11
79.747444152832
 21
99.339538574219
 31
0.0
  0
LINE
  5
D3
100
AcDbEntity
  8
0
  6
CONTINUOUS
 62
          15
100
AcDbLine
 10
52.464809417725
 20
86.536682128906
 30
0.0
 11
52.464809417725
 21
99.339538574219
 31
0.0
  0
LINE
  5
D4
100
AcDbEntity
  8
0
  6
CONTINUOUS
 62
          15
100
AcDbLine
 10
38.674026489258
 20
86.536682128906
 30
0.0
 11
38.674026489258
 21
99.339538574219
 31
0.0
  0
LINE
  5
D5
100
AcDbEntity
  8
0
  6
CONTINUOUS
 62
          15
100
AcDbLine
 10
93.358871459961
 20
86.552871704102
 30
0.0
 11
93.358871459961
 21
99.339538574219
 31
0.0
  0
LINE
  5
D6
100
AcDbEntity
  8
0
  6
CONTINUOUS
 62
          15
100
AcDbLine
 10
27.319820404053
 20
91.184921264648
 30
0.0
 11
27.319820404053
 21
99.339538574219
 31
0.0
  0
LINE
  5
D7
100
AcDbEntity
  8
0
  6
CONTINUOUS
 62
          15
100
AcDbLine
 10
33.18936920166
 20
91.184921264648
 30
0.0
 11
33.18936920166
 21
99.339538574219
 31
0.0
  0
LINE
  5
D8
100
AcDbEntity
  8
0
  6
CONTINUOUS
 62
          15
100
AcDbLine
 10
36.014091491699
 20
91.184921264648
 30
0.0
 11
36.014091491699
 21
99.339538574219
 31
0.0
  0
LINE
  5
D9
100
AcDbEntity
  8
0
  6
CONTINUOUS
 62
          15
100
AcDbLine
 10
41.296684265137
 20
91.184921264648
 30
0.0
 11
41.296684265137
 21
99.339538574219
 31
0.0
  0
LINE
  5
DA
100
AcDbEntity
  8
0
  6
CONTINUOUS
 62
          15
100
AcDbLine
 10
44.158088684082
 20
91.184921264648
 30
0.0
 11
44.158088684082
 21
99.339538574219
 31
0.0
  0
LINE
  5
DB
100
AcDbEntity
  8
0
  6
CONTINUOUS
 62
          15
100
AcDbLine
 10
47.092864990234
 20
91.184921264648
 30
0.0
 11
47.092864990234
 21
99.339538574219
 31
0.0
  0
LINE
  5
DC
100
AcDbEntity
  8
0
  6
CONTINUOUS
 62
          15
100
AcDbLine
 10
49.990955352783
 20
91.184921264648
 30
0.0
 11
49.990955352783
 21
99.339538574219
 31
0.0
  0
LINE
  5
DD
100
AcDbEntity
  8
0
  6
CONTINUOUS
 62
          15
100
AcDbLine
 10
54.943386077881
 20
91.184921264648
 30
0.0
 11
54.943386077881
 21
99.339538574219
 31
0.0
  0
LINE
  5
DE
100
AcDbEntity
  8
0
  6
CONTINUOUS
 62
          15
100
AcDbLine
 10
57.878162384033
 20
91.184921264648
 30
0.0
 11
57.878162384033
 21
99.339538574219
 31
0.0
  0
LINE
  5
DF
100
AcDbEntity
  8
0
  6
CONTINUOUS
 62
          15
100
AcDbLine
 10
60.776252746582
 20
91.184921264648
 30
0.0
 11
60.776252746582
 21
99.339538574219
 31
0.0
  0
LINE
  5
E0
100
AcDbEntity
  8
0
  6
CONTINUOUS
 62
          15
100
AcDbLine
 10
63.674339294434
 20
91.184921264648
 30
0.0
 11
63.674339294434
 21
99.339538574219
 31
0.0
  0
LINE
  5
E1
100
AcDbEntity
  8
0
  6
CONTINUOUS
 62
          15
100
AcDbLine
 10
68.590087890625
 20
91.184921264648
 30
0.0
 11
68.590087890625
 21
99.339538574219
 31
0.0
  0
LINE
  5
E2
100
AcDbEntity
  8
0
  6
CONTINUOUS
 62
          15
100
AcDbLine
 10
71.488174438477
 20
91.184921264648
 30
0.0
 11
71.488174438477
 21
99.339538574219
 31
0.0
  0
LINE
  5
E3
100
AcDbEntity
  8
0
  6
CONTINUOUS
 62
          15
100
AcDbLine
 10
74.496315002441
 20
91.258323669434
 30
0.0
 11
74.496315002441
 21
99.339538574219
 31
0.0
  0
LINE
  5
E4
100
AcDbEntity
  8
0
  6
CONTINUOUS
 62
          15
100
AcDbLine
 10
77.32103729248
 20
91.184921264648
 30
0.0
 11
77.32103729248
 21
99.339538574219
 31
0.0
  0
LINE
  5
E5
100
AcDbEntity
  8
0
  6
CONTINUOUS
 62
          15
100
AcDbLine
 10
79.747444152832
 20
96.256736755371
 30
0.0
 11
24.675464630127
 21
96.256736755371
 31
0.0
  0
LINE
  5
E6
100
AcDbEntity
  8
0
  6
CONTINUOUS
 62
          15
100
AcDbLine
 10
25.939472198486
 20
82.856819152832
 30
0.0
 11
25.939472198486
 21
93.857215881348
 31
0.0
  0
LINE
  5
E7
100
AcDbEntity
  8
0
  6
CONTINUOUS
 62
          15
100
AcDbLine
 10
28.809226989746
 20
82.856819152832
 30
0.0
 11
28.809226989746
 21
93.857215881348
 31
0.0
  0
LINE
  5
E8
100
AcDbEntity
  8
0
  6
CONTINUOUS
 62
          15
100
AcDbLine
 10
31.718849182129
 20
82.856819152832
 30
0.0
 11
31.718849182129
 21
93.857215881348
 31
0.0
  0
LINE
  5
E9
100
AcDbEntity
  8
0
  6
CONTINUOUS
 62
          15
100
AcDbLine
 10
34.668323516846
 20
82.856819152832
 30
0.0
 11
34.668323516846
 21
93.857215881348
 31
0.0
  0
LINE
  5
EA
100
AcDbEntity
  8
0
  6
CONTINUOUS
 62
          15
100
AcDbLine
 10
37.378646850586
 20
82.856819152832
 30
0.0
 11
37.378646850586
 21
93.857215881348
 31
0.0
  0
LINE
  5
EB
100
AcDbEntity
  8
0
  6
CONTINUOUS
 62
          15
100
AcDbLine
 10
34.901836395264
 20
115.885093688965
 30
0.0
 11
34.901836395264
 21
120.800750732422
 31
0.0
  0
LINE
  5
EC
100
AcDbEntity
  8
0
  6
CONTINUOUS
 62
          15
100
AcDbLine
 10
27.663921356201
 20
120.800750732422
 30
0.0
 11
34.901836395264
 21
120.800750732422
 31
0.0
  0
LINE
  5
ED
100
AcDbEntity
  8
0
  6
CONTINUOUS
 62
          15
100
AcDbLine
 10
27.663921356201
 20
115.885093688965
 30
0.0
 11
27.663921356201
 21
120.800750732422
 31
0.0
  0
LINE
  5
EE
100
AcDbEntity
  8
0
  6
CONTINUOUS
 62
          15
100
AcDbLine
 10
34.901836395264
 20
115.885093688965
 30
0.0
 11
27.663921356201
 21
115.885093688965
 31
0.0
  0
LINE
  5
EF
100
AcDbEntity
  8
0
  6
CONTINUOUS
 62
          15
100
AcDbLine
 10
34.901836395264
 20
110.698310852051
 30
0.0
 11
34.901836395264
 21
115.613967895508
 31
0.0
  0
LINE
  5
F0
100
AcDbEntity
  8
0
  6
CONTINUOUS
 62
          15
100
AcDbLine
 10
27.663921356201
 20
115.613967895508
 30
0.0
 11
34.901836395264
 21
115.613967895508
 31
0.0
  0
LINE
  5
F1
100
AcDbEntity
  8
0
  6
CONTINUOUS
 62
          15
100
AcDbLine
 10
27.663921356201
 20
110.698310852051
 30
0.0
 11
27.663921356201
 21
115.613967895508
 31
0.0
  0
LINE
  5
F2
100
AcDbEntity
  8
0
  6
CONTINUOUS
 62
          15
100
AcDbLine
 10
34.901836395264
 20
110.698310852051
 30
0.0
 11
27.663921356201
 21
110.698310852051
 31
0.0
  0
LINE
  5
F3
100
AcDbEntity
  8
0
  6
CONTINUOUS
 62
          15
100
AcDbLine
 10
34.901836395264
 20
105.511528015137
 30
0.0
 11
34.901836395264
 21
110.427177429199
 31
0.0
  0
LINE
  5
F4
100
AcDbEntity
  8
0
  6
CONTINUOUS
 62
          15
100
AcDbLine
 10
27.663921356201
 20
110.427177429199
 30
0.0
 11
34.901836395264
 21
110.427177429199
 31
0.0
  0
LINE
  5
F5
100
AcDbEntity
  8
0
  6
CONTINUOUS
 62
          15
100
AcDbLine
 10
27.663921356201
 20
105.511528015137
 30
0.0
 11
27.663921356201
 21
110.427177429199
 31
0.0
  0
LINE
  5
F6
100
AcDbEntity
  8
0
  6
CONTINUOUS
 62
          15
100
AcDbLine
 10
34.901836395264
 20
105.511528015137
 30
0.0
 11
27.663921356201
 21
105.511528015137
 31
0.0
  0
LINE
  5
F7
100
AcDbEntity
  8
0
  6
CONTINUOUS
 62
          15
100
AcDbLine
 10
34.901836395264
 20
100.324745178223
 30
0.0
 11
34.901836395264
 21
105.24040222168
 31
0.0
  0
LINE
  5
F8
100
AcDbEntity
  8
0
  6
CONTINUOUS
 62
          15
100
AcDbLine
 10
27.663921356201
 20
105.24040222168
 30
0.0
 11
34.901836395264
 21
105.24040222168
 31
0.0
  0
LINE
  5
F9
100
AcDbEntity
  8
0
  6
CONTINUOUS
 62
          15
100
AcDbLine
 10
27.663921356201
 20
100.324745178223
 30
0.0
 11
27.663921356201
 21
105.24040222168
 31
0.0
  0
LINE
  5
FA
100
AcDbEntity
  8
0
  6
CONTINUOUS
 62
          15
100
AcDbLine
 10
34.901836395264
 20
100.324745178223
 30
0.0
 11
27.663921356201
 21
100.324745178223
 31
0.0
  0
LINE
  5
FB
100
AcDbEntity
  8
0
  6
CONTINUOUS
 62
          15
100
AcDbLine
 10
46.513153076172
 20
115.896881103516
 30
0.0
 11
46.513153076172
 21
120.812538146973
 31
0.0
  0
LINE
  5
FC
100
AcDbEntity
  8
0
  6
CONTINUOUS
 62
          15
100
AcDbLine
 10
39.275234222412
 20
120.812538146973
 30
0.0
 11
46.513153076172
 21
120.812538146973
 31
0.0
  0
LINE
  5
FD
100
AcDbEntity
  8
0
  6
CONTINUOUS
 62
          15
100
AcDbLine
 10
39.275234222412
 20
115.896881103516
 30
0.0
 11
39.275234222412
 21
120.812538146973
 31
0.0
  0
LINE
  5
FE
100
AcDbEntity
  8
0
  6
CONTINUOUS
 62
          15
100
AcDbLine
 10
46.513153076172
 20
110.710098266602
 30
0.0
 11
46.513153076172
 21
115.625755310059
 31
0.0
  0
LINE
  5
FF
100
AcDbEntity
  8
0
  6
CONTINUOUS
 62
          15
100
AcDbLine
 10
39.275234222412
 20
110.710098266602
 30
0.0
 11
39.275234222412
 21
115.625755310059
 31
0.0
  0
LINE
  5
100
100
AcDbEntity
  8
0
  6
CONTINUOUS
 62
          15
100
AcDbLine
 10
46.513153076172
 20
105.523315429688
 30
0.0
 11
46.513153076172
 21
110.438972473145
 31
0.0
  0
LINE
  5
101
100
AcDbEntity
  8
0
  6
CONTINUOUS
 62
          15
100
AcDbLine
 10
39.275234222412
 20
105.523315429688
 30
0.0
 11
39.275234222412
 21
110.438972473145
 31
0.0
  0
LINE
  5
102
100
AcDbEntity
  8
0
  6
CONTINUOUS
 62
          15
100
AcDbLine
 10
46.513153076172
 20
100.336540222168
 30
0.0
 11
46.513153076172
 21
105.25218963623
 31
0.0
  0
LINE
  5
103
100
AcDbEntity
  8
0
  6
CONTINUOUS
 62
          15
100
AcDbLine
 10
39.275234222412
 20
100.336540222168
 30
0.0
 11
39.275234222412
 21
105.25218963623
 31
0.0
  0
LINE
  5
104
100
AcDbEntity
  8
0
  6
CONTINUOUS
 62
          15
100
AcDbLine
 10
46.513153076172
 20
100.336540222168
 30
0.0
 11
39.275234222412
 21
100.336540222168
 31
0.0
  0
LINE
  5
105
100
AcDbEntity
  8
0
  6
CONTINUOUS
 62
          15
100
AcDbLine
 10
58.12446975708
 20
115.896881103516
 30
0.0
 11
58.12446975708
 21
120.812538146973
 31
0.0
  0
LINE
  5
106
100
AcDbEntity
  8
0
  6
CONTINUOUS
 62
          15
100
AcDbLine
 10
50.88655090332
 20
120.812538146973
 30
0.0
 11
58.12446975708
 21
120.812538146973
 31
0.0
  0
LINE
  5
107
100
AcDbEntity
  8
0
  6
CONTINUOUS
 62
          15
100
AcDbLine
 10
50.88655090332
 20
115.896881103516
 30
0.0
 11
50.88655090332
 21
120.812538146973
 31
0.0
  0
LINE
  5
108
100
AcDbEntity
  8
0
  6
CONTINUOUS
 62
          15
100
AcDbLine
 10
58.12446975708
 20
110.710098266602
 30
0.0
 11
58.12446975708
 21
115.625755310059
 31
0.0
  0
LINE
  5
109
100
AcDbEntity
  8
0
  6
CONTINUOUS
 62
          15
100
AcDbLine
 10
50.88655090332
 20
110.710098266602
 30
0.0
 11
50.88655090332
 21
115.625755310059
 31
0.0
  0
LINE
  5
10A
100
AcDbEntity
  8
0
  6
CONTINUOUS
 62
          15
100
AcDbLine
 10
58.12446975708
 20
105.523315429688
 30
0.0
 11
58.12446975708
 21
110.438972473145
 31
0.0
  0
LINE
  5
10B
100
AcDbEntity
  8
0
  6
CONTINUOUS
 62
          15
100
AcDbLine
 10
50.88655090332
 20
105.523315429688
 30
0.0
 11
50.88655090332
 21
110.438972473145
 31
0.0
  0
LINE
  5
10C
100
AcDbEntity
  8
0
  6
CONTINUOUS
 62
          15
100
AcDbLine
 10
58.12446975708
 20
100.336540222168
 30
0.0
 11
58.12446975708
 21
105.25218963623
 31
0.0
  0
LINE
  5
10D
100
AcDbEntity
  8
0
  6
CONTINUOUS
 62
          15
100
AcDbLine
 10
50.88655090332
 20
100.336540222168
 30
0.0
 11
50.88655090332
 21
105.25218963623
 31
0.0
  0
LINE
  5
10E
100
AcDbEntity
  8
0
  6
CONTINUOUS
 62
          15
100
AcDbLine
 10
58.12446975708
 20
100.336540222168
 30
0.0
 11
50.88655090332
 21
100.336540222168
 31
0.0
  0
LINE
  5
10F
100
AcDbEntity
  8
0
  6
CONTINUOUS
 62
          15
100
AcDbLine
 10
69.723999023438
 20
115.896881103516
 30
0.0
 11
69.723999023438
 21
120.812538146973
 31
0.0
  0
LINE
  5
110
100
AcDbEntity
  8
0
  6
CONTINUOUS
 62
          15
100
AcDbLine
 10
62.486083984375
 20
120.812538146973
 30
0.0
 11
69.723999023438
 21
120.812538146973
 31
0.0
  0
LINE
  5
111
100
AcDbEntity
  8
0
  6
CONTINUOUS
 62
          15
100
AcDbLine
 10
62.486083984375
 20
115.896881103516
 30
0.0
 11
62.486083984375
 21
120.812538146973
 31
0.0
  0
LINE
  5
112
100
AcDbEntity
  8
0
  6
CONTINUOUS
 62
          15
100
AcDbLine
 10
69.723999023438
 20
115.896881103516
 30
0.0
 11
62.486083984375
 21
115.896881103516
 31
0.0
  0
LINE
  5
113
100
AcDbEntity
  8
0
  6
CONTINUOUS
 62
          15
100
AcDbLine
 10
69.723999023438
 20
110.710098266602
 30
0.0
 11
69.723999023438
 21
115.625755310059
 31
0.0
  0
LINE
  5
114
100
AcDbEntity
  8
0
  6
CONTINUOUS
 62
          15
100
AcDbLine
 10
62.486083984375
 20
115.625755310059
 30
0.0
 11
69.723999023438
 21
115.625755310059
 31
0.0
  0
LINE
  5
115
100
AcDbEntity
  8
0
  6
CONTINUOUS
 62
          15
100
AcDbLine
 10
62.486083984375
 20
110.710098266602
 30
0.0
 11
62.486083984375
 21
115.625755310059
 31
0.0
  0
LINE
  5
116
100
AcDbEntity
  8
0
  6
CONTINUOUS
 62
          15
100
AcDbLine
 10
69.723999023438
 20
110.710098266602
 30
0.0
 11
62.486083984375
 21
110.710098266602
 31
0.0
  0
LINE
  5
117
100
AcDbEntity
  8
0
  6
CONTINUOUS
 62
          15
100
AcDbLine
 10
69.723999023438
 20
105.523315429688
 30
0.0
 11
69.723999023438
 21
110.438972473145
 31
0.0
  0
LINE
  5
118
100
AcDbEntity
  8
0
  6
CONTINUOUS
 62
          15
100
AcDbLine
 10
62.486083984375
 20
110.438972473145
 30
0.0
 11
69.723999023438
 21
110.438972473145
 31
0.0
  0
LINE
  5
119
100
AcDbEntity
  8
0
  6
CONTINUOUS
 62
          15
100
AcDbLine
 10
62.486083984375
 20
105.523315429688
 30
0.0
 11
62.486083984375
 21
110.438972473145
 31
0.0
  0
LINE
  5
11A
100
AcDbEntity
  8
0
  6
CONTINUOUS
 62
          15
100
AcDbLine
 10
69.723999023438
 20
105.523315429688
 30
0.0
 11
62.486083984375
 21
105.523315429688
 31
0.0
  0
LINE
  5
11B
100
AcDbEntity
  8
0
  6
CONTINUOUS
 62
          15
100
AcDbLine
 10
69.723999023438
 20
100.336540222168
 30
0.0
 11
69.723999023438
 21
105.25218963623
 31
0.0
  0
LINE
  5
11C
100
AcDbEntity
  8
0
  6
CONTINUOUS
 62
          15
100
AcDbLine
 10
62.486083984375
 20
105.25218963623
 30
0.0
 11
69.723999023438
 21
105.25218963623
 31
0.0
  0
LINE
  5
11D
100
AcDbEntity
  8
0
  6
CONTINUOUS
 62
          15
100
AcDbLine
 10
62.486083984375
 20
100.336540222168
 30
0.0
 11
62.486083984375
 21
105.25218963623
 31
0.0
  0
LINE
  5
11E
100
AcDbEntity
  8
0
  6
CONTINUOUS
 62
          15
100
AcDbLine
 10
69.723999023438
 20
100.336540222168
 30
0.0
 11
62.486083984375
 21
100.336540222168
 31
0.0
  0
LINE
  5
11F
100
AcDbEntity
  8
0
  6
CONTINUOUS
 62
          15
100
AcDbLine
 10
81.323524475098
 20
115.896881103516
 30
0.0
 11
81.323524475098
 21
120.812538146973
 31
0.0
  0
LINE
  5
120
100
AcDbEntity
  8
0
  6
CONTINUOUS
 62
          15
100
AcDbLine
 10
74.085609436035
 20
120.812538146973
 30
0.0
 11
81.323524475098
 21
120.812538146973
 31
0.0
  0
LINE
  5
121
100
AcDbEntity
  8
0
  6
CONTINUOUS
 62
          15
100
AcDbLine
 10
74.085609436035
 20
115.896881103516
 30
0.0
 11
74.085609436035
 21
120.812538146973
 31
0.0
  0
LINE
  5
122
100
AcDbEntity
  8
0
  6
CONTINUOUS
 62
          15
100
AcDbLine
 10
81.323524475098
 20
115.896881103516
 30
0.0
 11
74.085609436035
 21
115.896881103516
 31
0.0
  0
LINE
  5
123
100
AcDbEntity
  8
0
  6
CONTINUOUS
 62
          15
100
AcDbLine
 10
81.323524475098
 20
110.710098266602
 30
0.0
 11
81.323524475098
 21
115.625755310059
 31
0.0
  0
LINE
  5
124
100
AcDbEntity
  8
0
  6
CONTINUOUS
 62
          15
100
AcDbLine
 10
74.085609436035
 20
115.625755310059
 30
0.0
 11
81.323524475098
 21
115.625755310059
 31
0.0
  0
LINE
  5
125
100
AcDbEntity
  8
0
  6
CONTINUOUS
 62
          15
100
AcDbLine
 10
74.085609436035
 20
110.710098266602
 30
0.0
 11
74.085609436035
 21
115.625755310059
 31
0.0
  0
LINE
  5
126
100
AcDbEntity
  8
0
  6
CONTINUOUS
 62
          15
100
AcDbLine
 10
81.323524475098
 20
110.710098266602
 30
0.0
 11
74.085609436035
 21
110.710098266602
 31
0.0
  0
LINE
  5
127
100
AcDbEntity
  8
0
  6
CONTINUOUS
 62
          15
100
AcDbLine
 10
81.323524475098
 20
105.523315429688
 30
0.0
 11
81.323524475098
 21
110.438972473145
 31
0.0
  0
LINE
  5
128
100
AcDbEntity
  8
0
  6
CONTINUOUS
 62
          15
100
AcDbLine
 10
74.085609436035
 20
110.438972473145
 30
0.0
 11
81.323524475098
 21
110.438972473145
 31
0.0
  0
LINE
  5
129
100
AcDbEntity
  8
0
  6
CONTINUOUS
 62
          15
100
AcDbLine
 10
74.085609436035
 20
105.523315429688
 30
0.0
 11
74.085609436035
 21
110.438972473145
 31
0.0
  0
LINE
  5
12A
100
AcDbEntity
  8
0
  6
CONTINUOUS
 62
          15
100
AcDbLine
 10
81.323524475098
 20
105.523315429688
 30
0.0
 11
74.085609436035
 21
105.523315429688
 31
0.0
  0
LINE
  5
12B
100
AcDbEntity
  8
0
  6
CONTINUOUS
 62
          15
100
AcDbLine
 10
81.323524475098
 20
100.336540222168
 30
0.0
 11
81.323524475098
 21
105.25218963623
 31
0.0
  0
LINE
  5
12C
100
AcDbEntity
  8
0
  6
CONTINUOUS
 62
          15
100
AcDbLine
 10
74.085609436035
 20
105.25218963623
 30
0.0
 11
81.323524475098
 21
105.25218963623
 31
0.0
  0
LINE
  5
12D
100
AcDbEntity
  8
0
  6
CONTINUOUS
 62
          15
100
AcDbLine
 10
74.085609436035
 20
100.336540222168
 30
0.0
 11
74.085609436035
 21
105.25218963623
 31
0.0
  0
LINE
  5
12E
100
AcDbEntity
  8
0
  6
CONTINUOUS
 62
          15
100
AcDbLine
 10
81.323524475098
 20
100.336540222168
 30
0.0
 11
74.085609436035
 21
100.336540222168
 31
0.0
  0
LINE
  5
12F
100
AcDbEntity
  8
0
  6
CONTINUOUS
 62
          15
100
AcDbLine
 10
75.629859924316
 20
121.519828796387
 30
0.0
 11
76.278205871582
 21
121.519828796387
 31
0.0
  0
LINE
  5
130
100
AcDbEntity
  8
0
  6
CONTINUOUS
 62
          15
100
AcDbLine
 10
78.871597290039
 20
121.519828796387
 30
0.0
 11
78.223243713379
 21
121.519828796387
 31
0.0
  0
LINE
  5
131
100
AcDbEntity
  8
0
  6
CONTINUOUS
 62
          15
100
AcDbLine
 10
78.223243713379
 20
121.991348266602
 30
0.0
 11
76.278205871582
 21
121.991348266602
 31
0.0
  0
LINE
  5
132
100
AcDbEntity
  8
0
  6
CONTINUOUS
 62
          15
100
AcDbLine
 10
78.223243713379
 20
121.991348266602
 30
0.0
 11
78.223243713379
 21
121.048301696777
 31
0.0
  0
LINE
  5
133
100
AcDbEntity
  8
0
  6
CONTINUOUS
 62
          15
100
AcDbLine
 10
76.278205871582
 20
121.048301696777
 30
0.0
 11
78.223243713379
 21
121.048301696777
 31
0.0
  0
LINE
  5
134
100
AcDbEntity
  8
0
  6
CONTINUOUS
 62
          15
100
AcDbLine
 10
76.278205871582
 20
121.048301696777
 30
0.0
 11
76.278205871582
 21
121.991348266602
 31
0.0
  0
LINE
  5
135
100
AcDbEntity
  8
0
  6
CONTINUOUS
 62
          15
100
AcDbLine
 10
77.751724243164
 20
121.048301696777
 30
0.0
 11
77.751724243164
 21
121.991348266602
 31
0.0
  0
LINE
  5
136
100
AcDbEntity
  8
0
  6
CONTINUOUS
 62
          15
100
AcDbLine
 10
77.574897766113
 20
121.048301696777
 30
0.0
 11
77.574897766113
 21
121.991348266602
 31
0.0
  0
LINE
  5
137
100
AcDbEntity
  8
0
  6
CONTINUOUS
 62
          15
100
AcDbLine
 10
75.629859924316
 20
122.93440246582
 30
0.0
 11
76.278205871582
 21
122.93440246582
 31
0.0
  0
LINE
  5
138
100
AcDbEntity
  8
0
  6
CONTINUOUS
 62
          15
100
AcDbLine
 10
78.871597290039
 20
122.93440246582
 30
0.0
 11
78.223243713379
 21
122.93440246582
 31
0.0
  0
LINE
  5
139
100
AcDbEntity
  8
0
  6
CONTINUOUS
 62
          15
100
AcDbLine
 10
78.223243713379
 20
123.40592956543
 30
0.0
 11
76.278205871582
 21
123.40592956543
 31
0.0
  0
LINE
  5
13A
100
AcDbEntity
  8
0
  6
CONTINUOUS
 62
          15
100
AcDbLine
 10
78.223243713379
 20
123.40592956543
 30
0.0
 11
78.223243713379
 21
122.462875366211
 31
0.0
  0
LINE
  5
13B
100
AcDbEntity
  8
0
  6
CONTINUOUS
 62
          15
100
AcDbLine
 10
76.278205871582
 20
122.462875366211
 30
0.0
 11
78.223243713379
 21
122.462875366211
 31
0.0
  0
LINE
  5
13C
100
AcDbEntity
  8
0
  6
CONTINUOUS
 62
          15
100
AcDbLine
 10
76.278205871582
 20
122.462875366211
 30
0.0
 11
76.278205871582
 21
123.40592956543
 31
0.0
  0
LINE
  5
13D
100
AcDbEntity
  8
0
  6
CONTINUOUS
 62
          15
100
AcDbLine
 10
77.751724243164
 20
122.462875366211
 30
0.0
 11
77.751724243164
 21
123.40592956543
 31
0.0
  0
LINE
  5
13E
100
AcDbEntity
  8
0
  6
CONTINUOUS
 62
          15
100
AcDbLine
 10
77.574897766113
 20
122.462875366211
 30
0.0
 11
77.574897766113
 21
123.40592956543
 31
0.0
  0
LINE
  5
13F
100
AcDbEntity
  8
0
  6
CONTINUOUS
 62
          15
100
AcDbLine
 10
75.629859924316
 20
124.348976135254
 30
0.0
 11
76.278205871582
 21
124.348976135254
 31
0.0
  0
LINE
  5
140
100
AcDbEntity
  8
0
  6
CONTINUOUS
 62
          15
100
AcDbLine
 10
78.871597290039
 20
124.348976135254
 30
0.0
 11
78.223243713379
 21
124.348976135254
 31
0.0
  0
LINE
  5
141
100
AcDbEntity
  8
0
  6
CONTINUOUS
 62
          15
100
AcDbLine
 10
78.223243713379
 20
124.820503234863
 30
0.0
 11
76.278205871582
 21
124.820503234863
 31
0.0
  0
LINE
  5
142
100
AcDbEntity
  8
0
  6
CONTINUOUS
 62
          15
100
AcDbLine
 10
78.223243713379
 20
124.820503234863
 30
0.0
 11
78.223243713379
 21
123.877456665039
 31
0.0
  0
LINE
  5
143
100
AcDbEntity
  8
0
  6
CONTINUOUS
 62
          15
100
AcDbLine
 10
76.278205871582
 20
123.877456665039
 30
0.0
 11
78.223243713379
 21
123.877456665039
 31
0.0
  0
LINE
  5
144
100
AcDbEntity
  8
0
  6
CONTINUOUS
 62
          15
100
AcDbLine
 10
76.278205871582
 20
123.877456665039
 30
0.0
 11
76.278205871582
 21
124.820503234863
 31
0.0
  0
LINE
  5
145
100
AcDbEntity
  8
0
  6
CONTINUOUS
 62
          15
100
AcDbLine
 10
77.751724243164
 20
123.877456665039
 30
0.0
 11
77.751724243164
 21
124.820503234863
 31
0.0
  0
LINE
  5
146
100
AcDbEntity
  8
0
  6
CONTINUOUS
 62
          15
100
AcDbLine
 10
77.574897766113
 20
123.877456665039
 30
0.0
 11
77.574897766113
 21
124.820503234863
 31
0.0
  0
LINE
  5
147
100
AcDbEntity
  8
0
  6
CONTINUOUS
 62
          15
100
AcDbLine
 10
75.629859924316
 20
125.763557434082
 30
0.0
 11
76.278205871582
 21
125.763557434082
 31
0.0
  0
LINE
  5
148
100
AcDbEntity
  8
0
  6
CONTINUOUS
 62
          15
100
AcDbLine
 10
78.871597290039
 20
125.763557434082
 30
0.0
 11
78.223243713379
 21
125.763557434082
 31
0.0
  0
LINE
  5
149
100
AcDbEntity
  8
0
  6
CONTINUOUS
 62
          15
100
AcDbLine
 10
78.223243713379
 20
126.235084533691
 30
0.0
 11
76.278205871582
 21
126.235084533691
 31
0.0
  0
LINE
  5
14A
100
AcDbEntity
  8
0
  6
CONTINUOUS
 62
          15
100
AcDbLine
 10
78.223243713379
 20
126.235084533691
 30
0.0
 11
78.223243713379
 21
125.292030334473
 31
0.0
  0
LINE
  5
14B
100
AcDbEntity
  8
0
  6
CONTINUOUS
 62
          15
100
AcDbLine
 10
76.278205871582
 20
125.292030334473
 30
0.0
 11
78.223243713379
 21
125.292030334473
 31
0.0
  0
LINE
  5
14C
100
AcDbEntity
  8
0
  6
CONTINUOUS
 62
          15
100
AcDbLine
 10
76.278205871582
 20
125.292030334473
 30
0.0
 11
76.278205871582
 21
126.235084533691
 31
0.0
  0
LINE
  5
14D
100
AcDbEntity
  8
0
  6
CONTINUOUS
 62
          15
100
AcDbLine
 10
77.751724243164
 20
125.292030334473
 30
0.0
 11
77.751724243164
 21
126.235084533691
 31
0.0
  0
LINE
  5
14E
100
AcDbEntity
  8
0
  6
CONTINUOUS
 62
          15
100
AcDbLine
 10
77.574897766113
 20
125.292030334473
 30
0.0
 11
77.574897766113
 21
126.235084533691
 31
0.0
  0
LINE
  5
14F
100
AcDbEntity
  8
0
  6
CONTINUOUS
 62
          15
100
AcDbLine
 10
63.947811126709
 20
121.519828796387
 30
0.0
 11
64.596160888672
 21
121.519828796387
 31
0.0
  0
LINE
  5
150
100
AcDbEntity
  8
0
  6
CONTINUOUS
 62
          15
100
AcDbLine
 10
67.189544677734
 20
121.519828796387
 30
0.0
 11
66.541198730469
 21
121.519828796387
 31
0.0
  0
LINE
  5
151
100
AcDbEntity
  8
0
  6
CONTINUOUS
 62
          15
100
AcDbLine
 10
66.541198730469
 20
121.991348266602
 30
0.0
 11
64.596160888672
 21
121.991348266602
 31
0.0
  0
LINE
  5
152
100
AcDbEntity
  8
0
  6
CONTINUOUS
 62
          15
100
AcDbLine
 10
66.541198730469
 20
121.991348266602
 30
0.0
 11
66.541198730469
 21
121.048301696777
 31
0.0
  0
LINE
  5
153
100
AcDbEntity
  8
0
  6
CONTINUOUS
 62
          15
100
AcDbLine
 10
64.596160888672
 20
121.048301696777
 30
0.0
 11
66.541198730469
 21
121.048301696777
 31
0.0
  0
LINE
  5
154
100
AcDbEntity
  8
0
  6
CONTINUOUS
 62
          15
100
AcDbLine
 10
64.596160888672
 20
121.048301696777
 30
0.0
 11
64.596160888672
 21
121.991348266602
 31
0.0
  0
LINE
  5
155
100
AcDbEntity
  8
0
  6
CONTINUOUS
 62
          15
100
AcDbLine
 10
66.069671630859
 20
121.048301696777
 30
0.0
 11
66.069671630859
 21
121.991348266602
 31
0.0
  0
LINE
  5
156
100
AcDbEntity
  8
0
  6
CONTINUOUS
 62
          15
100
AcDbLine
 10
65.892852783203
 20
121.048301696777
 30
0.0
 11
65.892852783203
 21
121.991348266602
 31
0.0
  0
LINE
  5
157
100
AcDbEntity
  8
0
  6
CONTINUOUS
 62
          15
100
AcDbLine
 10
63.947811126709
 20
122.93440246582
 30
0.0
 11
64.596160888672
 21
122.93440246582
 31
0.0
  0
LINE
  5
158
100
AcDbEntity
  8
0
  6
CONTINUOUS
 62
          15
100
AcDbLine
 10
67.189544677734
 20
122.93440246582
 30
0.0
 11
66.541198730469
 21
122.93440246582
 31
0.0
  0
LINE
  5
159
100
AcDbEntity
  8
0
  6
CONTINUOUS
 62
          15
100
AcDbLine
 10
66.541198730469
 20
123.40592956543
 30
0.0
 11
64.596160888672
 21
123.40592956543
 31
0.0
  0
LINE
  5
15A
100
AcDbEntity
  8
0
  6
CONTINUOUS
 62
          15
100
AcDbLine
 10
66.541198730469
 20
123.40592956543
 30
0.0
 11
66.541198730469
 21
122.462875366211
 31
0.0
  0
LINE
  5
15B
100
AcDbEntity
  8
0
  6
CONTINUOUS
 62
          15
100
AcDbLine
 10
64.596160888672
 20
122.462875366211
 30
0.0
 11
66.541198730469
 21
122.462875366211
 31
0.0
  0
LINE
  5
15C
100
AcDbEntity
  8
0
  6
CONTINUOUS
 62
          15
100
AcDbLine
 10
64.596160888672
 20
122.462875366211
 30
0.0
 11
64.596160888672
 21
123.40592956543
 31
0.0
  0
LINE
  5
15D
100
AcDbEntity
  8
0
  6
CONTINUOUS
 62
          15
100
AcDbLine
 10
66.069671630859
 20
122.462875366211
 30
0.0
 11
66.069671630859
 21
123.40592956543
 31
0.0
  0
LINE
  5
15E
100
AcDbEntity
  8
0
  6
CONTINUOUS
 62
          15
100
AcDbLine
 10
65.892852783203
 20
122.462875366211
 30
0.0
 11
65.892852783203
 21
123.40592956543
 31
0.0
  0
LINE
  5
15F
100
AcDbEntity
  8
0
  6
CONTINUOUS
 62
          15
100
AcDbLine
 10
63.947811126709
 20
124.348976135254
 30
0.0
 11
64.596160888672
 21
124.348976135254
 31
0.0
  0
LINE
  5
160
100
AcDbEntity
  8
0
  6
CONTINUOUS
 62
          15
100
AcDbLine
 10
67.189544677734
 20
124.348976135254
 30
0.0
 11
66.541198730469
 21
124.348976135254
 31
0.0
  0
LINE
  5
161
100
AcDbEntity
  8
0
  6
CONTINUOUS
 62
          15
100
AcDbLine
 10
66.541198730469
 20
124.820503234863
 30
0.0
 11
64.596160888672
 21
124.820503234863
 31
0.0
  0
LINE
  5
162
100
AcDbEntity
  8
0
  6
CONTINUOUS
 62
          15
100
AcDbLine
 10
66.541198730469
 20
124.820503234863
 30
0.0
 11
66.541198730469
 21
123.877456665039
 31
0.0
  0
LINE
  5
163
100
AcDbEntity
  8
0
  6
CONTINUOUS
 62
          15
100
AcDbLine
 10
64.596160888672
 20
123.877456665039
 30
0.0
 11
66.541198730469
 21
123.877456665039
 31
0.0
  0
LINE
  5
164
100
AcDbEntity
  8
0
  6
CONTINUOUS
 62
          15
100
AcDbLine
 10
64.596160888672
 20
123.877456665039
 30
0.0
 11
64.596160888672
 21
124.820503234863
 31
0.0
  0
LINE
  5
165
100
AcDbEntity
  8
0
  6
CONTINUOUS
 62
          15
100
AcDbLine
 10
66.069671630859
 20
123.877456665039
 30
0.0
 11
66.069671630859
 21
124.820503234863
 31
0.0
  0
LINE
  5
166
100
AcDbEntity
  8
0
  6
CONTINUOUS
 62
          15
100
AcDbLine
 10
65.892852783203
 20
123.877456665039
 30
0.0
 11
65.892852783203
 21
124.820503234863
 31
0.0
  0
LINE
  5
167
100
AcDbEntity
  8
0
  6
CONTINUOUS
 62
          15
100
AcDbLine
 10
63.947811126709
 20
125.763557434082
 30
0.0
 11
64.596160888672
 21
125.763557434082
 31
0.0
  0
LINE
  5
168
100
AcDbEntity
  8
0
  6
CONTINUOUS
 62
          15
100
AcDbLine
 10
67.189544677734
 20
125.763557434082
 30
0.0
 11
66.541198730469
 21
125.763557434082
 31
0.0
  0
LINE
  5
169
100
AcDbEntity
  8
0
  6
CONTINUOUS
 62
          15
100
AcDbLine
 10
66.541198730469
 20
126.235084533691
 30
0.0
 11
64.596160888672
 21
126.235084533691
 31
0.0
  0
LINE
  5
16A
100
AcDbEntity
  8
0
  6
CONTINUOUS
 62
          15
100
AcDbLine
 10
66.541198730469
 20
126.235084533691
 30
0.0
 11
66.541198730469
 21
125.292030334473
 31
0.0
  0
LINE
  5
16B
100
AcDbEntity
  8
0
  6
CONTINUOUS
 62
          15
100
AcDbLine
 10
64.596160888672
 20
125.292030334473
 30
0.0
 11
66.541198730469
 21
125.292030334473
 31
0.0
  0
LINE
  5
16C
100
AcDbEntity
  8
0
  6
CONTINUOUS
 62
          15
100
AcDbLine
 10
64.596160888672
 20
125.292030334473
 30
0.0
 11
64.596160888672
 21
126.235084533691
 31
0.0
  0
LINE
  5
16D
100
AcDbEntity
  8
0
  6
CONTINUOUS
 62
          15
100
AcDbLine
 10
66.069671630859
 20
125.292030334473
 30
0.0
 11
66.069671630859
 21
126.235084533691
 31
0.0
  0
LINE
  5
16E
100
AcDbEntity
  8
0
  6
CONTINUOUS
 62
          15
100
AcDbLine
 10
65.892852783203
 20
125.292030334473
 30
0.0
 11
65.892852783203
 21
126.235084533691
 31
0.0
  0
LINE
  5
16F
100
AcDbEntity
  8
0
  6
CONTINUOUS
 62
          15
100
AcDbLine
 10
52.4072265625
 20
121.519828796387
 30
0.0
 11
53.055568695068
 21
121.519828796387
 31
0.0
  0
LINE
  5
170
100
AcDbEntity
  8
0
  6
CONTINUOUS
 62
          15
100
AcDbLine
 10
55.648963928223
 20
121.519828796387
 30
0.0
 11
55.00061416626
 21
121.519828796387
 31
0.0
  0
LINE
  5
171
100
AcDbEntity
  8
0
  6
CONTINUOUS
 62
          15
100
AcDbLine
 10
55.00061416626
 20
121.991348266602
 30
0.0
 11
53.055568695068
 21
121.991348266602
 31
0.0
  0
LINE
  5
172
100
AcDbEntity
  8
0
  6
CONTINUOUS
 62
          15
100
AcDbLine
 10
55.00061416626
 20
121.991348266602
 30
0.0
 11
55.00061416626
 21
121.048301696777
 31
0.0
  0
LINE
  5
173
100
AcDbEntity
  8
0
  6
CONTINUOUS
 62
          15
100
AcDbLine
 10
53.055568695068
 20
121.048301696777
 30
0.0
 11
55.00061416626
 21
121.048301696777
 31
0.0
  0
LINE
  5
174
100
AcDbEntity
  8
0
  6
CONTINUOUS
 62
          15
100
AcDbLine
 10
53.055568695068
 20
121.048301696777
 30
0.0
 11
53.055568695068
 21
121.991348266602
 31
0.0
  0
LINE
  5
175
100
AcDbEntity
  8
0
  6
CONTINUOUS
 62
          15
100
AcDbLine
 10
54.52908706665
 20
121.048301696777
 30
0.0
 11
54.52908706665
 21
121.991348266602
 31
0.0
  0
LINE
  5
176
100
AcDbEntity
  8
0
  6
CONTINUOUS
 62
          15
100
AcDbLine
 10
54.352264404297
 20
121.048301696777
 30
0.0
 11
54.352264404297
 21
121.991348266602
 31
0.0
  0
LINE
  5
177
100
AcDbEntity
  8
0
  6
CONTINUOUS
 62
          15
100
AcDbLine
 10
52.4072265625
 20
122.93440246582
 30
0.0
 11
53.055568695068
 21
122.93440246582
 31
0.0
  0
LINE
  5
178
100
AcDbEntity
  8
0
  6
CONTINUOUS
 62
          15
100
AcDbLine
 10
55.648963928223
 20
122.93440246582
 30
0.0
 11
55.00061416626
 21
122.93440246582
 31
0.0
  0
LINE
  5
179
100
AcDbEntity
  8
0
  6
CONTINUOUS
 62
          15
100
AcDbLine
 10
55.00061416626
 20
123.40592956543
 30
0.0
 11
53.055568695068
 21
123.40592956543
 31
0.0
  0
LINE
  5
17A
100
AcDbEntity
  8
0
  6
CONTINUOUS
 62
          15
100
AcDbLine
 10
55.00061416626
 20
123.40592956543
 30
0.0
 11
55.00061416626
 21
122.462875366211
 31
0.0
  0
LINE
  5
17B
100
AcDbEntity
  8
0
  6
CONTINUOUS
 62
          15
100
AcDbLine
 10
53.055568695068
 20
122.462875366211
 30
0.0
 11
55.00061416626
 21
122.462875366211
 31
0.0
  0
LINE
  5
17C
100
AcDbEntity
  8
0
  6
CONTINUOUS
 62
          15
100
AcDbLine
 10
53.055568695068
 20
122.462875366211
 30
0.0
 11
53.055568695068
 21
123.40592956543
 31
0.0
  0
LINE
  5
17D
100
AcDbEntity
  8
0
  6
CONTINUOUS
 62
          15
100
AcDbLine
 10
54.52908706665
 20
122.462875366211
 30
0.0
 11
54.52908706665
 21
123.40592956543
 31
0.0
  0
LINE
  5
17E
100
AcDbEntity
  8
0
  6
CONTINUOUS
 62
          15
100
AcDbLine
 10
54.352264404297
 20
122.462875366211
 30
0.0
 11
54.352264404297
 21
123.40592956543
 31
0.0
  0
LINE
  5
17F
100
AcDbEntity
  8
0
  6
CONTINUOUS
 62
          15
100
AcDbLine
 10
52.4072265625
 20
124.348976135254
 30
0.0
 11
53.055568695068
 21
124.348976135254
 31
0.0
  0
LINE
  5
180
100
AcDbEntity
  8
0
  6
CONTINUOUS
 62
          15
100
AcDbLine
 10
55.648963928223
 20
124.348976135254
 30
0.0
 11
55.00061416626
 21
124.348976135254
 31
0.0
  0
LINE
  5
181
100
AcDbEntity
  8
0
  6
CONTINUOUS
 62
          15
100
AcDbLine
 10
55.00061416626
 20
124.820503234863
 30
0.0
 11
53.055568695068
 21
124.820503234863
 31
0.0
  0
LINE
  5
182
100
AcDbEntity
  8
0
  6
CONTINUOUS
 62
          15
100
AcDbLine
 10
55.00061416626
 20
124.820503234863
 30
0.0
 11
55.00061416626
 21
123.877456665039
 31
0.0
  0
LINE
  5
183
100
AcDbEntity
  8
0
  6
CONTINUOUS
 62
          15
100
AcDbLine
 10
53.055568695068
 20
123.877456665039
 30
0.0
 11
55.00061416626
 21
123.877456665039
 31
0.0
  0
LINE
  5
184
100
AcDbEntity
  8
0
  6
CONTINUOUS
 62
          15
100
AcDbLine
 10
53.055568695068
 20
123.877456665039
 30
0.0
 11
53.055568695068
 21
124.820503234863
 31
0.0
  0
LINE
  5
185
100
AcDbEntity
  8
0
  6
CONTINUOUS
 62
          15
100
AcDbLine
 10
54.52908706665
 20
123.877456665039
 30
0.0
 11
54.52908706665
 21
124.820503234863
 31
0.0
  0
LINE
  5
186
100
AcDbEntity
  8
0
  6
CONTINUOUS
 62
          15
100
AcDbLine
 10
54.352264404297
 20
123.877456665039
 30
0.0
 11
54.352264404297
 21
124.820503234863
 31
0.0
  0
LINE
  5
187
100
AcDbEntity
  8
0
  6
CONTINUOUS
 62
          15
100
AcDbLine
 10
52.4072265625
 20
125.763557434082
 30
0.0
 11
53.055568695068
 21
125.763557434082
 31
0.0
  0
LINE
  5
188
100
AcDbEntity
  8
0
  6
CONTINUOUS
 62
          15
100
AcDbLine
 10
55.648963928223
 20
125.763557434082
 30
0.0
 11
55.00061416626
 21
125.763557434082
 31
0.0
  0
LINE
  5
189
100
AcDbEntity
  8
0
  6
CONTINUOUS
 62
          15
100
AcDbLine
 10
55.00061416626
 20
126.235084533691
 30
0.0
 11
53.055568695068
 21
126.235084533691
 31
0.0
  0
LINE
  5
18A
100
AcDbEntity
  8
0
  6
CONTINUOUS
 62
          15
100
AcDbLine
 10
55.00061416626
 20
126.235084533691
 30
0.0
 11
55.00061416626
 21
125.292030334473
 31
0.0
  0
LINE
  5
18B
100
AcDbEntity
  8
0
  6
CONTINUOUS
 62
          15
100
AcDbLine
 10
53.055568695068
 20
125.292030334473
 30
0.0
 11
55.00061416626
 21
125.292030334473
 31
0.0
  0
LINE
  5
18C
100
AcDbEntity
  8
0
  6
CONTINUOUS
 62
          15
100
AcDbLine
 10
53.055568695068
 20
125.292030334473
 30
0.0
 11
53.055568695068
 21
126.235084533691
 31
0.0
  0
LINE
  5
18D
100
AcDbEntity
  8
0
  6
CONTINUOUS
 62
          15
100
AcDbLine
 10
54.52908706665
 20
125.292030334473
 30
0.0
 11
54.52908706665
 21
126.235084533691
 31
0.0
  0
LINE
  5
18E
100
AcDbEntity
  8
0
  6
CONTINUOUS
 62
          15
100
AcDbLine
 10
54.352264404297
 20
125.292030334473
 30
0.0
 11
54.352264404297
 21
126.235084533691
 31
0.0
  0
LINE
  5
18F
100
AcDbEntity
  8
0
  6
CONTINUOUS
 62
          15
100
AcDbLine
 10
41.196697235107
 20
121.519828796387
 30
0.0
 11
41.84504699707
 21
121.519828796387
 31
0.0
  0
LINE
  5
190
100
AcDbEntity
  8
0
  6
CONTINUOUS
 62
          15
100
AcDbLine
 10
44.438438415527
 20
121.519828796387
 30
0.0
 11
43.790092468262
 21
121.519828796387
 31
0.0
  0
LINE
  5
191
100
AcDbEntity
  8
0
  6
CONTINUOUS
 62
          15
100
AcDbLine
 10
43.790092468262
 20
121.991348266602
 30
0.0
 11
41.84504699707
 21
121.991348266602
 31
0.0
  0
LINE
  5
192
100
AcDbEntity
  8
0
  6
CONTINUOUS
 62
          15
100
AcDbLine
 10
43.790092468262
 20
121.991348266602
 30
0.0
 11
43.790092468262
 21
121.048301696777
 31
0.0
  0
LINE
  5
193
100
AcDbEntity
  8
0
  6
CONTINUOUS
 62
          15
100
AcDbLine
 10
41.84504699707
 20
121.048301696777
 30
0.0
 11
43.790092468262
 21
121.048301696777
 31
0.0
  0
LINE
  5
194
100
AcDbEntity
  8
0
  6
CONTINUOUS
 62
          15
100
AcDbLine
 10
41.84504699707
 20
121.048301696777
 30
0.0
 11
41.84504699707
 21
121.991348266602
 31
0.0
  0
LINE
  5
195
100
AcDbEntity
  8
0
  6
CONTINUOUS
 62
          15
100
AcDbLine
 10
43.318572998047
 20
121.048301696777
 30
0.0
 11
43.318572998047
 21
121.991348266602
 31
0.0
  0
LINE
  5
196
100
AcDbEntity
  8
0
  6
CONTINUOUS
 62
          15
100
AcDbLine
 10
43.141746520996
 20
121.048301696777
 30
0.0
 11
43.141746520996
 21
121.991348266602
 31
0.0
  0
LINE
  5
197
100
AcDbEntity
  8
0
  6
CONTINUOUS
 62
          15
100
AcDbLine
 10
41.196697235107
 20
122.93440246582
 30
0.0
 11
41.84504699707
 21
122.93440246582
 31
0.0
  0
LINE
  5
198
100
AcDbEntity
  8
0
  6
CONTINUOUS
 62
          15
100
AcDbLine
 10
44.438438415527
 20
122.93440246582
 30
0.0
 11
43.790092468262
 21
122.93440246582
 31
0.0
  0
LINE
  5
199
100
AcDbEntity
  8
0
  6
CONTINUOUS
 62
          15
100
AcDbLine
 10
43.790092468262
 20
123.40592956543
 30
0.0
 11
41.84504699707
 21
123.40592956543
 31
0.0
  0
LINE
  5
19A
100
AcDbEntity
  8
0
  6
CONTINUOUS
 62
          15
100
AcDbLine
 10
43.790092468262
 20
123.40592956543
 30
0.0
 11
43.790092468262
 21
122.462875366211
 31
0.0
  0
LINE
  5
19B
100
AcDbEntity
  8
0
  6
CONTINUOUS
 62
          15
100
AcDbLine
 10
41.84504699707
 20
122.462875366211
 30
0.0
 11
43.790092468262
 21
122.462875366211
 31
0.0
  0
LINE
  5
19C
100
AcDbEntity
  8
0
  6
CONTINUOUS
 62
          15
100
AcDbLine
 10
41.84504699707
 20
122.462875366211
 30
0.0
 11
41.84504699707
 21
123.40592956543
 31
0.0
  0
LINE
  5
19D
100
AcDbEntity
  8
0
  6
CONTINUOUS
 62
          15
100
AcDbLine
 10
43.318572998047
 20
122.462875366211
 30
0.0
 11
43.318572998047
 21
123.40592956543
 31
0.0
  0
LINE
  5
19E
100
AcDbEntity
  8
0
  6
CONTINUOUS
 62
          15
100
AcDbLine
 10
43.141746520996
 20
122.462875366211
 30
0.0
 11
43.141746520996
 21
123.40592956543
 31
0.0
  0
LINE
  5
19F
100
AcDbEntity
  8
0
  6
CONTINUOUS
 62
          15
100
AcDbLine
 10
41.196697235107
 20
124.348976135254
 30
0.0
 11
41.84504699707
 21
124.348976135254
 31
0.0
  0
LINE
  5
1A0
100
AcDbEntity
  8
0
  6
CONTINUOUS
 62
          15
100
AcDbLine
 10
44.438438415527
 20
124.348976135254
 30
0.0
 11
43.790092468262
 21
124.348976135254
 31
0.0
  0
LINE
  5
1A1
100
AcDbEntity
  8
0
  6
CONTINUOUS
 62
          15
100
AcDbLine
 10
43.790092468262
 20
124.820503234863
 30
0.0
 11
41.84504699707
 21
124.820503234863
 31
0.0
  0
LINE
  5
1A2
100
AcDbEntity
  8
0
  6
CONTINUOUS
 62
          15
100
AcDbLine
 10
43.790092468262
 20
124.820503234863
 30
0.0
 11
43.790092468262
 21
123.877456665039
 31
0.0
  0
LINE
  5
1A3
100
AcDbEntity
  8
0
  6
CONTINUOUS
 62
          15
100
AcDbLine
 10
41.84504699707
 20
123.877456665039
 30
0.0
 11
43.790092468262
 21
123.877456665039
 31
0.0
  0
LINE
  5
1A4
100
AcDbEntity
  8
0
  6
CONTINUOUS
 62
          15
100
AcDbLine
 10
41.84504699707
 20
123.877456665039
 30
0.0
 11
41.84504699707
 21
124.820503234863
 31
0.0
  0
LINE
  5
1A5
100
AcDbEntity
  8
0
  6
CONTINUOUS
 62
          15
100
AcDbLine
 10
43.318572998047
 20
123.877456665039
 30
0.0
 11
43.318572998047
 21
124.820503234863
 31
0.0
  0
LINE
  5
1A6
100
AcDbEntity
  8
0
  6
CONTINUOUS
 62
          15
100
AcDbLine
 10
43.141746520996
 20
123.877456665039
 30
0.0
 11
43.141746520996
 21
124.820503234863
 31
0.0
  0
LINE
  5
1A7
100
AcDbEntity
  8
0
  6
CONTINUOUS
 62
          15
100
AcDbLine
 10
41.196697235107
 20
125.763557434082
 30
0.0
 11
41.84504699707
 21
125.763557434082
 31
0.0
  0
LINE
  5
1A8
100
AcDbEntity
  8
0
  6
CONTINUOUS
 62
          15
100
AcDbLine
 10
44.438438415527
 20
125.763557434082
 30
0.0
 11
43.790092468262
 21
125.763557434082
 31
0.0
  0
LINE
  5
1A9
100
AcDbEntity
  8
0
  6
CONTINUOUS
 62
          15
100
AcDbLine
 10
43.790092468262
 20
126.235084533691
 30
0.0
 11
41.84504699707
 21
126.235084533691
 31
0.0
  0
LINE
  5
1AA
100
AcDbEntity
  8
0
  6
CONTINUOUS
 62
          15
100
AcDbLine
 10
43.790092468262
 20
126.235084533691
 30
0.0
 11
43.790092468262
 21
125.292030334473
 31
0.0
  0
LINE
  5
1AB
100
AcDbEntity
  8
0
  6
CONTINUOUS
 62
          15
100
AcDbLine
 10
41.84504699707
 20
125.292030334473
 30
0.0
 11
43.790092468262
 21
125.292030334473
 31
0.0
  0
LINE
  5
1AC
100
AcDbEntity
  8
0
  6
CONTINUOUS
 62
          15
100
AcDbLine
 10
41.84504699707
 20
125.292030334473
 30
0.0
 11
41.84504699707
 21
126.235084533691
 31
0.0
  0
LINE
  5
1AD
100
AcDbEntity
  8
0
  6
CONTINUOUS
 62
          15
100
AcDbLine
 10
43.318572998047
 20
125.292030334473
 30
0.0
 11
43.318572998047
 21
126.235084533691
 31
0.0
  0
LINE
  5
1AE
100
AcDbEntity
  8
0
  6
CONTINUOUS
 62
          15
100
AcDbLine
 10
43.141746520996
 20
125.292030334473
 30
0.0
 11
43.141746520996
 21
126.235084533691
 31
0.0
  0
LINE
  5
1AF
100
AcDbEntity
  8
0
  6
CONTINUOUS
 62
          15
100
AcDbLine
 10
29.632537841797
 20
121.460884094238
 30
0.0
 11
30.280881881714
 21
121.460884094238
 31
0.0
  0
LINE
  5
1B0
100
AcDbEntity
  8
0
  6
CONTINUOUS
 62
          15
100
AcDbLine
 10
32.874271392822
 20
121.460884094238
 30
0.0
 11
32.225933074951
 21
121.460884094238
 31
0.0
  0
LINE
  5
1B1
100
AcDbEntity
  8
0
  6
CONTINUOUS
 62
          15
100
AcDbLine
 10
32.225933074951
 20
121.932411193848
 30
0.0
 11
30.280881881714
 21
121.932411193848
 31
0.0
  0
LINE
  5
1B2
100
AcDbEntity
  8
0
  6
CONTINUOUS
 62
          15
100
AcDbLine
 10
32.225933074951
 20
121.932411193848
 30
0.0
 11
32.225933074951
 21
120.989356994629
 31
0.0
  0
LINE
  5
1B3
100
AcDbEntity
  8
0
  6
CONTINUOUS
 62
          15
100
AcDbLine
 10
30.280881881714
 20
120.989356994629
 30
0.0
 11
32.225933074951
 21
120.989356994629
 31
0.0
  0
LINE
  5
1B4
100
AcDbEntity
  8
0
  6
CONTINUOUS
 62
          15
100
AcDbLine
 10
30.280881881714
 20
120.989356994629
 30
0.0
 11
30.280881881714
 21
121.932411193848
 31
0.0
  0
LINE
  5
1B5
100
AcDbEntity
  8
0
  6
CONTINUOUS
 62
          15
100
AcDbLine
 10
31.754402160645
 20
120.989356994629
 30
0.0
 11
31.754402160645
 21
121.932411193848
 31
0.0
  0
LINE
  5
1B6
100
AcDbEntity
  8
0
  6
CONTINUOUS
 62
          15
100
AcDbLine
 10
31.577579498291
 20
120.989356994629
 30
0.0
 11
31.577579498291
 21
121.932411193848
 31
0.0
  0
LINE
  5
1B7
100
AcDbEntity
  8
0
  6
CONTINUOUS
 62
          15
100
AcDbLine
 10
29.632537841797
 20
122.875465393066
 30
0.0
 11
30.280881881714
 21
122.875465393066
 31
0.0
  0
LINE
  5
1B8
100
AcDbEntity
  8
0
  6
CONTINUOUS
 62
          15
100
AcDbLine
 10
32.874271392822
 20
122.875465393066
 30
0.0
 11
32.225933074951
 21
122.875465393066
 31
0.0
  0
LINE
  5
1B9
100
AcDbEntity
  8
0
  6
CONTINUOUS
 62
          15
100
AcDbLine
 10
32.225933074951
 20
123.346984863281
 30
0.0
 11
30.280881881714
 21
123.346984863281
 31
0.0
  0
LINE
  5
1BA
100
AcDbEntity
  8
0
  6
CONTINUOUS
 62
          15
100
AcDbLine
 10
32.225933074951
 20
123.346984863281
 30
0.0
 11
32.225933074951
 21
122.403938293457
 31
0.0
  0
LINE
  5
1BB
100
AcDbEntity
  8
0
  6
CONTINUOUS
 62
          15
100
AcDbLine
 10
30.280881881714
 20
122.403938293457
 30
0.0
 11
32.225933074951
 21
122.403938293457
 31
0.0
  0
LINE
  5
1BC
100
AcDbEntity
  8
0
  6
CONTINUOUS
 62
          15
100
AcDbLine
 10
30.280881881714
 20
122.403938293457
 30
0.0
 11
30.280881881714
 21
123.346984863281
 31
0.0
  0
LINE
  5
1BD
100
AcDbEntity
  8
0
  6
CONTINUOUS
 62
          15
100
AcDbLine
 10
31.754402160645
 20
122.403938293457
 30
0.0
 11
31.754402160645
 21
123.346984863281
 31
0.0
  0
LINE
  5
1BE
100
AcDbEntity
  8
0
  6
CONTINUOUS
 62
          15
100
AcDbLine
 10
31.577579498291
 20
122.403938293457
 30
0.0
 11
31.577579498291
 21
123.346984863281
 31
0.0
  0
LINE
  5
1BF
100
AcDbEntity
  8
0
  6
CONTINUOUS
 62
          15
100
AcDbLine
 10
29.632537841797
 20
124.2900390625
 30
0.0
 11
30.280881881714
 21
124.2900390625
 31
0.0
  0
LINE
  5
1C0
100
AcDbEntity
  8
0
  6
CONTINUOUS
 62
          15
100
AcDbLine
 10
32.874271392822
 20
124.2900390625
 30
0.0
 11
32.225933074951
 21
124.2900390625
 31
0.0
  0
LINE
  5
1C1
100
AcDbEntity
  8
0
  6
CONTINUOUS
 62
          15
100
AcDbLine
 10
32.225933074951
 20
124.761566162109
 30
0.0
 11
30.280881881714
 21
124.761566162109
 31
0.0
  0
LINE
  5
1C2
100
AcDbEntity
  8
0
  6
CONTINUOUS
 62
          15
100
AcDbLine
 10
32.225933074951
 20
124.761566162109
 30
0.0
 11
32.225933074951
 21
123.818511962891
 31
0.0
  0
LINE
  5
1C3
100
AcDbEntity
  8
0
  6
CONTINUOUS
 62
          15
100
AcDbLine
 10
30.280881881714
 20
123.818511962891
 30
0.0
 11
32.225933074951
 21
123.818511962891
 31
0.0
  0
LINE
  5
1C4
100
AcDbEntity
  8
0
  6
CONTINUOUS
 62
          15
100
AcDbLine
 10
30.280881881714
 20
123.818511962891
 30
0.0
 11
30.280881881714
 21
124.761566162109
 31
0.0
  0
LINE
  5
1C5
100
AcDbEntity
  8
0
  6
CONTINUOUS
 62
          15
100
AcDbLine
 10
31.754402160645
 20
123.818511962891
 30
0.0
 11
31.754402160645
 21
124.761566162109
 31
0.0
  0
LINE
  5
1C6
100
AcDbEntity
  8
0
  6
CONTINUOUS
 62
          15
100
AcDbLine
 10
31.577579498291
 20
123.818511962891
 30
0.0
 11
31.577579498291
 21
124.761566162109
 31
0.0
  0
LINE
  5
1C7
100
AcDbEntity
  8
0
  6
CONTINUOUS
 62
          15
100
AcDbLine
 10
29.632537841797
 20
125.704612731934
 30
0.0
 11
30.280881881714
 21
125.704612731934
 31
0.0
  0
LINE
  5
1C8
100
AcDbEntity
  8
0
  6
CONTINUOUS
 62
          15
100
AcDbLine
 10
32.874271392822
 20
125.704612731934
 30
0.0
 11
32.225933074951
 21
125.704612731934
 31
0.0
  0
LINE
  5
1C9
100
AcDbEntity
  8
0
  6
CONTINUOUS
 62
          15
100
AcDbLine
 10
32.225933074951
 20
126.176139831543
 30
0.0
 11
30.280881881714
 21
126.176139831543
 31
0.0
  0
LINE
  5
1CA
100
AcDbEntity
  8
0
  6
CONTINUOUS
 62
          15
100
AcDbLine
 10
32.225933074951
 20
126.176139831543
 30
0.0
 11
32.225933074951
 21
125.233093261719
 31
0.0
  0
LINE
  5
1CB
100
AcDbEntity
  8
0
  6
CONTINUOUS
 62
          15
100
AcDbLine
 10
30.280881881714
 20
125.233093261719
 30
0.0
 11
32.225933074951
 21
125.233093261719
 31
0.0
  0
LINE
  5
1CC
100
AcDbEntity
  8
0
  6
CONTINUOUS
 62
          15
100
AcDbLine
 10
30.280881881714
 20
125.233093261719
 30
0.0
 11
30.280881881714
 21
126.176139831543
 31
0.0
  0
LINE
  5
1CD
100
AcDbEntity
  8
0
  6
CONTINUOUS
 62
          15
100
AcDbLine
 10
31.754402160645
 20
125.233093261719
 30
0.0
 11
31.754402160645
 21
126.176139831543
 31
0.0
  0
LINE
  5
1CE
100
AcDbEntity
  8
0
  6
CONTINUOUS
 62
          15
100
AcDbLine
 10
31.577579498291
 20
125.233093261719
 30
0.0
 11
31.577579498291
 21
126.176139831543
 31
0.0
  0
TEXT
  5
1CF
100
AcDbEntity
  8
0
  6
CONTINUOUS
 62
          15
100
AcDbText
 10
31.518634498119
 20
119.162200918459
 30
0.0
 40
0.707288384438
  1
RL1
 50
-90.000002504478
 41
1.111111143884
  7
TXT
100
AcDbText
  0
TEXT
  5
1D0
100
AcDbEntity
  8
0
  6
CONTINUOUS
 62
          15
100
AcDbText
 10
31.518634498119
 20
113.975410452151
 30
0.0
 40
0.707288384438
  1
RL2
 50
-90.000002504478
 41
1.111111143884
  7
TXT
100
AcDbText
  0
TEXT
  5
1D1
100
AcDbEntity
  8
0
  6
CONTINUOUS
 62
          15
100
AcDbText
 10
31.518634498119
 20
108.788627615237
 30
0.0
 40
0.707288384438
  1
RL3
 50
-90.000002504478
 41
1.111111143884
  7
TXT
100
AcDbText
  0
TEXT
  5
1D2
100
AcDbEntity
  8
0
  6
CONTINUOUS
 62
          15
100
AcDbText
 10
31.518634498119
 20
103.601844778323
 30
0.0
 40
0.707288384438
  1
RL4
 50
-90.000002504478
 41
1.111111143884
  7
TXT
100
AcDbText
  0
TEXT
  5
1D3
100
AcDbEntity
  8
0
  6
CONTINUOUS
 62
          15
100
AcDbText
 10
43.129956901073
 20
119.173980703616
 30
0.0
 40
0.707288384438
  1
RL5
 50
-90.000002504478
 41
1.111111143884
  7
TXT
100
AcDbText
  0
TEXT
  5
1D4
100
AcDbEntity
  8
0
  6
CONTINUOUS
 62
          15
100
AcDbText
 10
43.129956901073
 20
113.987197866702
 30
0.0
 40
0.707288384438
  1
RL6
 50
-90.000002504478
 41
1.111111143884
  7
TXT
100
AcDbText
  0
TEXT
  5
1D5
100
AcDbEntity
  8
0
  6
CONTINUOUS
 62
          15
100
AcDbText
 10
43.129956901073
 20
108.800422659182
 30
0.0
 40
0.707288384438
  1
RL7
 50
-90.000002504478
 41
1.111111143884
  7
TXT
100
AcDbText
  0
TEXT
  5
1D6
100
AcDbEntity
  8
0
  6
CONTINUOUS
 62
          15
100
AcDbText
 10
43.129956901073
 20
103.613632192873
 30
0.0
 40
0.707288384438
  1
RL8
 50
-90.000002504478
 41
1.111111143884
  7
TXT
100
AcDbText
  0
TEXT
  5
1D7
100
AcDbEntity
  8
0
  6
CONTINUOUS
 62
          15
100
AcDbText
 10
54.741281211376
 20
119.173980703616
 30
0.0
 40
0.707288384438
  1
RL9
 50
-90.000002504478
 41
1.111111143884
  7
TXT
100
AcDbText
  0
TEXT
  5
1D8
100
AcDbEntity
  8
0
  6
CONTINUOUS
 62
          15
100
AcDbText
 10
54.741281211376
 20
113.987197866702
 30
0.0
 40
0.707288384438
  1
RL10
 50
-90.000002504478
 41
1.074074124013
  7
TXT
100
AcDbText
  0
TEXT
  5
1D9
100
AcDbEntity
  8
0
  6
CONTINUOUS
 62
          15
100
AcDbText
 10
54.741281211376
 20
108.800422659182
 30
0.0
 40
0.707288384438
  1
RL11
 50
-90.000002504478
 41
1.074074124013
  7
TXT
100
AcDbText
  0
TEXT
  5
1DA
100
AcDbEntity
  8
0
  6
CONTINUOUS
 62
          15
100
AcDbText
 10
54.741281211376
 20
103.613632192873
 30
0.0
 40
0.707288384438
  1
RL12
 50
-90.000002504478
 41
1.074074124013
  7
TXT
100
AcDbText
  0
TEXT
  5
1DB
100
AcDbEntity
  8
0
  6
CONTINUOUS
 62
          15
100
AcDbText
 10
66.340795218945
 20
119.173980703616
 30
0.0
 40
0.707288384438
  1
RL13
 50
-90.000002504478
 41
1.074074124013
  7
TXT
100
AcDbText
  0
TEXT
  5
1DC
100
AcDbEntity
  8
0
  6
CONTINUOUS
 62
          15
100
AcDbText
 10
66.340795218945
 20
113.987197866702
 30
0.0
 40
0.707288384438
  1
RL14
 50
-90.000002504478
 41
1.074074124013
  7
TXT
100
AcDbText
  0
TEXT
  5
1DD
100
AcDbEntity
  8
0
  6
CONTINUOUS
 62
          15
100
AcDbText
 10
66.340795218945
 20
108.800422659182
 30
0.0
 40
0.707288384438
  1
RL15
 50
-90.000002504478
 41
1.074074124013
  7
TXT
100
AcDbText
  0
TEXT
  5
1DE
100
AcDbEntity
  8
0
  6
CONTINUOUS
 62
          15
100
AcDbText
 10
66.340795218945
 20
103.613632192873
 30
0.0
 40
0.707288384438
  1
RL16
 50
-90.000002504478
 41
1.074074124013
  7
TXT
100
AcDbText
  0
TEXT
  5
1DF
100
AcDbEntity
  8
0
  6
CONTINUOUS
 62
          15
100
AcDbText
 10
77.940328299999
 20
119.173980703616
 30
0.0
 40
0.707288384438
  1
RL17
 50
-90.000002504478
 41
1.074074124013
  7
TXT
100
AcDbText
  0
TEXT
  5
1E0
100
AcDbEntity
  8
0
  6
CONTINUOUS
 62
          15
100
AcDbText
 10
77.940328299999
 20
113.987197866702
 30
0.0
 40
0.707288384438
  1
RL18
 50
-90.000002504478
 41
1.074074124013
  7
TXT
100
AcDbText
  0
TEXT
  5
1E1
100
AcDbEntity
  8
0
  6
CONTINUOUS
 62
          15
100
AcDbText
 10
77.940328299999
 20
108.800422659182
 30
0.0
 40
0.707288384438
  1
RL19
 50
-90.000002504478
 41
1.074074124013
  7
TXT
100
AcDbText
  0
TEXT
  5
1E2
100
AcDbEntity
  8
0
  6
CONTINUOUS
 62
          15
100
AcDbText
 10
77.940328299999
 20
103.613632192873
 30
0.0
 40
0.707288384438
  1
RL20
 50
-90.000002504478
 41
1.074074124013
  7
TXT
100
AcDbText
  0
LINE
  5
1E3
100
AcDbEntity
  8
0
  6
CONTINUOUS
 62
          15
100
AcDbLine
 10
58.12446975708
 20
115.896881103516
 30
0.0
 11
50.88655090332
 21
115.896881103516
 31
0.0
  0
LINE
  5
1E4
100
AcDbEntity
  8
0
  6
CONTINUOUS
 62
          15
100
AcDbLine
 10
50.88655090332
 20
115.625755310059
 30
0.0
 11
58.12446975708
 21
115.625755310059
 31
0.0
  0
LINE
  5
1E5
100
AcDbEntity
  8
0
  6
CONTINUOUS
 62
          15
100
AcDbLine
 10
58.12446975708
 20
110.710098266602
 30
0.0
 11
50.88655090332
 21
110.710098266602
 31
0.0
  0
LINE
  5
1E6
100
AcDbEntity
  8
0
  6
CONTINUOUS
 62
          15
100
AcDbLine
 10
50.88655090332
 20
110.438972473145
 30
0.0
 11
58.12446975708
 21
110.438972473145
 31
0.0
  0
LINE
  5
1E7
100
AcDbEntity
  8
0
  6
CONTINUOUS
 62
          15
100
AcDbLine
 10
58.12446975708
 20
105.523315429688
 30
0.0
 11
50.88655090332
 21
105.523315429688
 31
0.0
  0
LINE
  5
1E8
100
AcDbEntity
  8
0
  6
CONTINUOUS
 62
          15
100
AcDbLine
 10
50.88655090332
 20
105.25218963623
 30
0.0
 11
58.12446975708
 21
105.25218963623
 31
0.0
  0
LINE
  5
1E9
100
AcDbEntity
  8
0
  6
CONTINUOUS
 62
          15
100
AcDbLine
 10
46.513153076172
 20
115.896881103516
 30
0.0
 11
39.275234222412
 21
115.896881103516
 31
0.0
  0
LINE
  5
1EA
100
AcDbEntity
  8
0
  6
CONTINUOUS
 62
          15
100
AcDbLine
 10
39.275234222412
 20
115.625755310059
 30
0.0
 11
46.513153076172
 21
115.625755310059
 31
0.0
  0
LINE
  5
1EB
100
AcDbEntity
  8
0
  6
CONTINUOUS
 62
          15
100
AcDbLine
 10
46.513153076172
 20
110.710098266602
 30
0.0
 11
39.275234222412
 21
110.710098266602
 31
0.0
  0
LINE
  5
1EC
100
AcDbEntity
  8
0
  6
CONTINUOUS
 62
          15
100
AcDbLine
 10
39.275234222412
 20
110.438972473145
 30
0.0
 11
46.513153076172
 21
110.438972473145
 31
0.0
  0
LINE
  5
1ED
100
AcDbEntity
  8
0
  6
CONTINUOUS
 62
          15
100
AcDbLine
 10
46.513153076172
 20
105.523315429688
 30
0.0
 11
39.275234222412
 21
105.523315429688
 31
0.0
  0
LINE
  5
1EE
100
AcDbEntity
  8
0
  6
CONTINUOUS
 62
          15
100
AcDbLine
 10
39.275234222412
 20
105.25218963623
 30
0.0
 11
46.513153076172
 21
105.25218963623
 31
0.0
  0
LINE
  5
1EF
100
AcDbEntity
  8
0
  6
CONTINUOUS
 62
          15
100
AcDbLine
 10
71.501495361328
 20
137.503616333008
 30
0.0
 11
72.680305480957
 21
136.324813842773
 31
0.0
  0
LINE
  5
1F0
100
AcDbEntity
  8
0
  6
CONTINUOUS
 62
          15
100
AcDbLine
 10
62.035621643066
 20
137.538986206055
 30
0.0
 11
72.715675354004
 21
137.538986206055
 31
0.0
  0
LINE
  5
1F1
100
AcDbEntity
  8
0
  6
CONTINUOUS
 62
          15
100
AcDbLine
 10
72.715675354004
 20
137.538986206055
 30
0.0
 11
72.715675354004
 21
126.858932495117
 31
0.0
  0
LINE
  5
1F2
100
AcDbEntity
  8
0
  6
CONTINUOUS
 62
          15
100
AcDbLine
 10
72.715675354004
 20
126.858932495117
 30
0.0
 11
62.035621643066
 21
126.858932495117
 31
0.0
  0
LINE
  5
1F3
100
AcDbEntity
  8
0
  6
CONTINUOUS
 62
          15
100
AcDbLine
 10
62.035621643066
 20
137.538986206055
 30
0.0
 11
62.035621643066
 21
126.858932495117
 31
0.0
  0
CIRCLE
  5
1F4
100
AcDbEntity
  8
0
  6
CONTINUOUS
 62
          15
100
AcDbCircle
 10
62.070987701416
 20
137.46826171875
 30
0.0
 40
0.294703513384
  0
LINE
  5
1F5
100
AcDbEntity
  8
0
  6
CONTINUOUS
 62
          15
100
AcDbLine
 10
48.573566436768
 20
128.167419433594
 30
0.0
 11
48.278861999512
 21
128.167419433594
 31
0.0
  0
LINE
  5
1F6
100
AcDbEntity
  8
0
  6
CONTINUOUS
 62
          15
100
AcDbLine
 10
44.329837799072
 20
128.167419433594
 30
0.0
 11
44.624542236328
 21
128.167419433594
 31
0.0
  0
LINE
  5
1F7
100
AcDbEntity
  8
0
  6
CONTINUOUS
 62
          15
100
AcDbLine
 10
48.278861999512
 20
128.756820678711
 30
0.0
 11
44.56559753418
 21
128.756820678711
 31
0.0
  0
LINE
  5
1F8
100
AcDbEntity
  8
0
  6
CONTINUOUS
 62
          15
100
AcDbLine
 10
48.278861999512
 20
128.756820678711
 30
0.0
 11
48.278861999512
 21
127.578010559082
 31
0.0
  0
LINE
  5
1F9
100
AcDbEntity
  8
0
  6
CONTINUOUS
 62
          15
100
AcDbLine
 10
44.56559753418
 20
127.578010559082
 30
0.0
 11
48.278861999512
 21
127.578010559082
 31
0.0
  0
LINE
  5
1FA
100
AcDbEntity
  8
0
  6
CONTINUOUS
 62
          15
100
AcDbLine
 10
44.56559753418
 20
127.578010559082
 30
0.0
 11
44.56559753418
 21
128.756820678711
 31
0.0
  0
LINE
  5
1FB
100
AcDbEntity
  8
0
  6
CONTINUOUS
 62
          15
100
AcDbLine
 10
38.412189483643
 20
128.745040893555
 30
0.0
 11
38.412189483643
 21
127.589797973633
 31
0.0
  0
LINE
  5
1FC
100
AcDbEntity
  8
0
  6
CONTINUOUS
 62
          15
100
AcDbLine
 10
34.934684753418
 20
128.745040893555
 30
0.0
 11
38.412189483643
 21
128.745040893555
 31
0.0
  0
LINE
  5
1FD
100
AcDbEntity
  8
0
  6
CONTINUOUS
 62
          15
100
AcDbLine
 10
34.934684753418
 20
128.745040893555
 30
0.0
 11
34.934684753418
 21
127.589797973633
 31
0.0
  0
LINE
  5
1FE
100
AcDbEntity
  8
0
  6
CONTINUOUS
 62
          15
100
AcDbLine
 10
38.412189483643
 20
127.589797973633
 30
0.0
 11
34.934684753418
 21
127.589797973633
 31
0.0
  0
LINE
  5
1FF
100
AcDbEntity
  8
0
  6
CONTINUOUS
 62
          15
100
AcDbLine
 10
27.343128204346
 20
134.886657714844
 30
0.0
 11
28.227226257324
 21
134.886657714844
 31
0.0
  0
LINE
  5
200
100
AcDbEntity
  8
0
  6
CONTINUOUS
 62
          15
100
AcDbLine
 10
27.343128204346
 20
134.886657714844
 30
0.0
 11
27.343128204346
 21
133.413146972656
 31
0.0
  0
LINE
  5
201
100
AcDbEntity
  8
0
  6
CONTINUOUS
 62
          15
100
AcDbLine
 10
28.227226257324
 20
133.413146972656
 30
0.0
 11
27.343128204346
 21
133.413146972656
 31
0.0
  0
LINE
  5
202
100
AcDbEntity
  8
0
  6
CONTINUOUS
 62
          15
100
AcDbLine
 10
28.227226257324
 20
133.413146972656
 30
0.0
 11
28.227226257324
 21
134.886657714844
 31
0.0
  0
LINE
  5
203
100
AcDbEntity
  8
0
  6
CONTINUOUS
 62
          15
100
AcDbLine
 10
27.225250244141
 20
130.053527832031
 30
0.0
 11
51.273048400879
 21
130.053527832031
 31
0.0
  0
LINE
  5
204
100
AcDbEntity
  8
0
  6
CONTINUOUS
 62
          15
100
AcDbLine
 10
27.225250244141
 20
130.053527832031
 30
0.0
 11
27.225250244141
 21
137.951568603516
 31
0.0
  0
LINE
  5
205
100
AcDbEntity
  8
0
  6
CONTINUOUS
 62
          15
100
AcDbLine
 10
51.273048400879
 20
137.951568603516
 30
0.0
 11
27.225250244141
 21
137.951568603516
 31
0.0
  0
LINE
  5
206
100
AcDbEntity
  8
0
  6
CONTINUOUS
 62
          15
100
AcDbLine
 10
51.273048400879
 20
137.951568603516
 30
0.0
 11
51.273048400879
 21
130.053527832031
 31
0.0
  0
LINE
  5
207
100
AcDbEntity
  8
0
  6
CONTINUOUS
 62
          15
100
AcDbLine
 10
74.931838989258
 20
135.700042724609
 30
0.0
 11
74.931838989258
 21
136.855270385742
 31
0.0
  0
LINE
  5
208
100
AcDbEntity
  8
0
  6
CONTINUOUS
 62
          15
100
AcDbLine
 10
78.40934753418
 20
135.700042724609
 30
0.0
 11
74.931838989258
 21
135.700042724609
 31
0.0
  0
LINE
  5
209
100
AcDbEntity
  8
0
  6
CONTINUOUS
 62
          15
100
AcDbLine
 10
78.40934753418
 20
135.700042724609
 30
0.0
 11
78.40934753418
 21
136.855270385742
 31
0.0
  0
LINE
  5
20A
100
AcDbEntity
  8
0
  6
CONTINUOUS
 62
          15
100
AcDbLine
 10
74.931838989258
 20
136.855270385742
 30
0.0
 11
78.40934753418
 21
136.855270385742
 31
0.0
  0
LINE
  5
20B
100
AcDbEntity
  8
0
  6
CONTINUOUS
 62
          15
100
AcDbLine
 10
74.177398681641
 20
131.621337890625
 30
0.0
 11
73.022163391113
 21
131.621337890625
 31
0.0
  0
LINE
  5
20C
100
AcDbEntity
  8
0
  6
CONTINUOUS
 62
          15
100
AcDbLine
 10
73.022163391113
 20
131.621337890625
 30
0.0
 11
73.022163391113
 21
135.098846435547
 31
0.0
  0
LINE
  5
20D
100
AcDbEntity
  8
0
  6
CONTINUOUS
 62
          15
100
AcDbLine
 10
73.022163391113
 20
135.098846435547
 30
0.0
 11
74.177398681641
 21
135.098846435547
 31
0.0
  0
LINE
  5
20E
100
AcDbEntity
  8
0
  6
CONTINUOUS
 62
          15
100
AcDbLine
 10
74.177398681641
 20
131.621337890625
 30
0.0
 11
74.177398681641
 21
135.098846435547
 31
0.0
  0
LINE
  5
20F
100
AcDbEntity
  8
0
  6
CONTINUOUS
 62
          15
100
AcDbLine
 10
82.732719421387
 20
137.967575073242
 30
0.0
 11
82.732719421387
 21
118.028038024902
 31
0.0
  0
LINE
  5
210
100
AcDbEntity
  8
0
  6
CONTINUOUS
 62
          15
100
AcDbLine
 10
114.630043029785
 20
118.028038024902
 30
0.0
 11
114.630043029785
 21
137.967575073242
 31
0.0
  0
LINE
  5
211
100
AcDbEntity
  8
0
  6
CONTINUOUS
 62
          15
100
AcDbLine
 10
114.630043029785
 20
118.028038024902
 30
0.0
 11
82.732719421387
 21
118.028038024902
 31
0.0
  0
LINE
  5
212
100
AcDbEntity
  8
0
  6
CONTINUOUS
 62
          15
100
AcDbLine
 10
82.732719421387
 20
137.967575073242
 30
0.0
 11
114.630043029785
 21
137.967575073242
 31
0.0
  0
LINE
  5
213
100
AcDbEntity
  8
0
  6
CONTINUOUS
 62
          15
100
AcDbLine
 10
95.943969726563
 20
115.815200805664
 30
0.0
 11
84.849250793457
 21
115.815200805664
 31
0.0
  0
LINE
  5
214
100
AcDbEntity
  8
0
  6
CONTINUOUS
 62
          15
100
AcDbLine
 10
95.943969726563
 20
115.815200805664
 30
0.0
 11
95.943969726563
 21
111.654678344727
 31
0.0
  0
LINE
  5
215
100
AcDbEntity
  8
0
  6
CONTINUOUS
 62
          15
100
AcDbLine
 10
84.849250793457
 20
111.654678344727
 30
0.0
 11
95.943969726563
 21
111.654678344727
 31
0.0
  0
LINE
  5
216
100
AcDbEntity
  8
0
  6
CONTINUOUS
 62
          15
100
AcDbLine
 10
84.849250793457
 20
111.654678344727
 30
0.0
 11
84.849250793457
 21
115.815200805664
 31
0.0
  0
LINE
  5
217
100
AcDbEntity
  8
0
  6
CONTINUOUS
 62
          15
100
AcDbLine
 10
98.717651367188
 20
115.953880310059
 30
0.0
 11
101.491333007813
 21
115.953880310059
 31
0.0
  0
LINE
  5
218
100
AcDbEntity
  8
0
  6
CONTINUOUS
 62
          15
100
AcDbLine
 10
98.717651367188
 20
115.953880310059
 30
0.0
 11
98.717651367188
 21
117.340721130371
 31
0.0
  0
LINE
  5
219
100
AcDbEntity
  8
0
  6
CONTINUOUS
 62
          15
100
AcDbLine
 10
101.491333007813
 20
117.340721130371
 30
0.0
 11
98.717651367188
 21
117.340721130371
 31
0.0
  0
LINE
  5
21A
100
AcDbEntity
  8
0
  6
CONTINUOUS
 62
          15
100
AcDbLine
 10
101.491333007813
 20
117.340721130371
 30
0.0
 11
101.491333007813
 21
115.953880310059
 31
0.0
  0
LINE
  5
21B
100
AcDbEntity
  8
0
  6
CONTINUOUS
 62
          15
100
AcDbLine
 10
101.491333007813
 20
116.647300720215
 30
0.0
 11
101.838043212891
 21
116.647300720215
 31
0.0
  0
LINE
  5
21C
100
AcDbEntity
  8
0
  6
CONTINUOUS
 62
          15
100
AcDbLine
 10
101.491333007813
 20
116.647300720215
 30
0.0
 11
101.491333007813
 21
116.647300720215
 31
0.0
  0
LINE
  5
21D
100
AcDbEntity
  8
0
  6
CONTINUOUS
 62
          15
100
AcDbLine
 10
101.838043212891
 20
116.647300720215
 30
0.0
 11
101.491333007813
 21
116.647300720215
 31
0.0
  0
LINE
  5
21E
100
AcDbEntity
  8
0
  6
CONTINUOUS
 62
          15
100
AcDbLine
 10
101.838043212891
 20
116.647300720215
 30
0.0
 11
101.838043212891
 21
116.647300720215
 31
0.0
  0
LINE
  5
21F
100
AcDbEntity
  8
0
  6
CONTINUOUS
 62
          15
100
AcDbLine
 10
98.370941162109
 20
116.647300720215
 30
0.0
 11
98.717651367188
 21
116.647300720215
 31
0.0
  0
LINE
  5
220
100
AcDbEntity
  8
0
  6
CONTINUOUS
 62
          15
100
AcDbLine
 10
98.370941162109
 20
116.647300720215
 30
0.0
 11
98.370941162109
 21
116.647300720215
 31
0.0
  0
LINE
  5
221
100
AcDbEntity
  8
0
  6
CONTINUOUS
 62
          15
100
AcDbLine
 10
98.717651367188
 20
116.647300720215
 30
0.0
 11
98.370941162109
 21
116.647300720215
 31
0.0
  0
LINE
  5
222
100
AcDbEntity
  8
0
  6
CONTINUOUS
 62
          15
100
AcDbLine
 10
98.717651367188
 20
116.647300720215
 30
0.0
 11
98.717651367188
 21
116.647300720215
 31
0.0
  0
LINE
  5
223
100
AcDbEntity
  8
0
  6
CONTINUOUS
 62
          15
100
AcDbLine
 10
99.411071777344
 20
115.953880310059
 30
0.0
 11
99.411071777344
 21
117.340721130371
 31
0.0
  0
LINE
  5
224
100
AcDbEntity
  8
0
  6
CONTINUOUS
 62
          15
100
AcDbLine
 10
94.557136535645
 20
117.340721130371
 30
0.0
 11
91.78345489502
 21
117.340721130371
 31
0.0
  0
LINE
  5
225
100
AcDbEntity
  8
0
  6
CONTINUOUS
 62
          15
100
AcDbLine
 10
94.557136535645
 20
117.340721130371
 30
0.0
 11
94.557136535645
 21
115.953880310059
 31
0.0
  0
LINE
  5
226
100
AcDbEntity
  8
0
  6
CONTINUOUS
 62
          15
100
AcDbLine
 10
91.78345489502
 20
115.953880310059
 30
0.0
 11
94.557136535645
 21
115.953880310059
 31
0.0
  0
LINE
  5
227
100
AcDbEntity
  8
0
  6
CONTINUOUS
 62
          15
100
AcDbLine
 10
91.78345489502
 20
115.953880310059
 30
0.0
 11
91.78345489502
 21
117.340721130371
 31
0.0
  0
LINE
  5
228
100
AcDbEntity
  8
0
  6
CONTINUOUS
 62
          15
100
AcDbLine
 10
91.78345489502
 20
116.647300720215
 30
0.0
 11
91.436744689941
 21
116.647300720215
 31
0.0
  0
LINE
  5
229
100
AcDbEntity
  8
0
  6
CONTINUOUS
 62
          15
100
AcDbLine
 10
91.78345489502
 20
116.647300720215
 30
0.0
 11
91.78345489502
 21
116.647300720215
 31
0.0
  0
LINE
  5
22A
100
AcDbEntity
  8
0
  6
CONTINUOUS
 62
          15
100
AcDbLine
 10
91.436744689941
 20
116.647300720215
 30
0.0
 11
91.78345489502
 21
116.647300720215
 31
0.0
  0
LINE
  5
22B
100
AcDbEntity
  8
0
  6
CONTINUOUS
 62
          15
100
AcDbLine
 10
91.436744689941
 20
116.647300720215
 30
0.0
 11
91.436744689941
 21
116.647300720215
 31
0.0
  0
LINE
  5
22C
100
AcDbEntity
  8
0
  6
CONTINUOUS
 62
          15
100
AcDbLine
 10
94.903839111328
 20
116.647300720215
 30
0.0
 11
94.557136535645
 21
116.647300720215
 31
0.0
  0
LINE
  5
22D
100
AcDbEntity
  8
0
  6
CONTINUOUS
 62
          15
100
AcDbLine
 10
94.903839111328
 20
116.647300720215
 30
0.0
 11
94.903839111328
 21
116.647300720215
 31
0.0
  0
LINE
  5
22E
100
AcDbEntity
  8
0
  6
CONTINUOUS
 62
          15
100
AcDbLine
 10
94.557136535645
 20
116.647300720215
 30
0.0
 11
94.903839111328
 21
116.647300720215
 31
0.0
  0
LINE
  5
22F
100
AcDbEntity
  8
0
  6
CONTINUOUS
 62
          15
100
AcDbLine
 10
94.557136535645
 20
116.647300720215
 30
0.0
 11
94.557136535645
 21
116.647300720215
 31
0.0
  0
LINE
  5
230
100
AcDbEntity
  8
0
  6
CONTINUOUS
 62
          15
100
AcDbLine
 10
93.863708496094
 20
117.340721130371
 30
0.0
 11
93.863708496094
 21
115.953880310059
 31
0.0
  0
CIRCLE
  5
231
100
AcDbEntity
  8
0
  6
CONTINUOUS
 62
          15
100
AcDbCircle
 10
100.936599731445
 20
111.43278503418
 30
0.0
 40
4.340808868408
  0
LINE
  5
232
100
AcDbEntity
  8
0
  6
CONTINUOUS
 62
          15
100
AcDbLine
 10
96.346153259277
 20
104.734344482422
 30
0.0
 11
94.98705291748
 21
104.734344482422
 31
0.0
  0
LINE
  5
233
100
AcDbEntity
  8
0
  6
CONTINUOUS
 62
          15
100
AcDbLine
 10
94.98705291748
 20
104.734344482422
 30
0.0
 11
94.98705291748
 21
108.825523376465
 31
0.0
  0
LINE
  5
234
100
AcDbEntity
  8
0
  6
CONTINUOUS
 62
          15
100
AcDbLine
 10
94.98705291748
 20
108.825523376465
 30
0.0
 11
96.346153259277
 21
108.825523376465
 31
0.0
  0
LINE
  5
235
100
AcDbEntity
  8
0
  6
CONTINUOUS
 62
          15
100
AcDbLine
 10
96.346153259277
 20
104.734344482422
 30
0.0
 11
96.346153259277
 21
108.825523376465
 31
0.0
  0
LINE
  5
236
100
AcDbEntity
  8
0
  6
CONTINUOUS
 62
          15
100
AcDbLine
 10
89.134590148926
 20
104.734344482422
 30
0.0
 11
87.775489807129
 21
104.734344482422
 31
0.0
  0
LINE
  5
237
100
AcDbEntity
  8
0
  6
CONTINUOUS
 62
          15
100
AcDbLine
 10
87.775489807129
 20
104.734344482422
 30
0.0
 11
87.775489807129
 21
108.825523376465
 31
0.0
  0
LINE
  5
238
100
AcDbEntity
  8
0
  6
CONTINUOUS
 62
          15
100
AcDbLine
 10
87.775489807129
 20
108.825523376465
 30
0.0
 11
89.134590148926
 21
108.825523376465
 31
0.0
  0
LINE
  5
239
100
AcDbEntity
  8
0
  6
CONTINUOUS
 62
          15
100
AcDbLine
 10
89.134590148926
 20
104.734344482422
 30
0.0
 11
89.134590148926
 21
108.825523376465
 31
0.0
  0
LINE
  5
23A
100
AcDbEntity
  8
0
  6
CONTINUOUS
 62
          15
100
AcDbLine
 10
109.340850830078
 20
111.446647644043
 30
0.0
 11
109.340850830078
 21
111.099945068359
 31
0.0
  0
LINE
  5
23B
100
AcDbEntity
  8
0
  6
CONTINUOUS
 62
          15
100
AcDbLine
 10
109.340850830078
 20
106.454025268555
 30
0.0
 11
109.340850830078
 21
106.800735473633
 31
0.0
  0
LINE
  5
23C
100
AcDbEntity
  8
0
  6
CONTINUOUS
 62
          15
100
AcDbLine
 10
108.647430419922
 20
111.099945068359
 30
0.0
 11
108.647430419922
 21
106.731399536133
 31
0.0
  0
LINE
  5
23D
100
AcDbEntity
  8
0
  6
CONTINUOUS
 62
          15
100
AcDbLine
 10
108.647430419922
 20
111.099945068359
 30
0.0
 11
110.03426361084
 21
111.099945068359
 31
0.0
  0
LINE
  5
23E
100
AcDbEntity
  8
0
  6
CONTINUOUS
 62
          15
100
AcDbLine
 10
110.03426361084
 20
106.731399536133
 30
0.0
 11
110.03426361084
 21
111.099945068359
 31
0.0
  0
LINE
  5
23F
100
AcDbEntity
  8
0
  6
CONTINUOUS
 62
          15
100
AcDbLine
 10
110.03426361084
 20
106.731399536133
 30
0.0
 11
108.647430419922
 21
106.731399536133
 31
0.0
  0
LINE
  5
240
100
AcDbEntity
  8
0
  6
CONTINUOUS
 62
          15
100
AcDbLine
 10
107.42700958252
 20
115.496223449707
 30
0.0
 11
107.42700958252
 21
113.582389831543
 31
0.0
  0
ARC
  5
241
100
AcDbEntity
  8
0
  6
CONTINUOUS
 62
          15
100
AcDbCircle
 10
108.481002807617
 20
114.622512817383
 30
0.0
 40
1.386839985847
100
AcDbArc
 50
224.999999658377
 51
145.49999551117
  0
LINE
  5
242
100
AcDbEntity
  8
0
  6
CONTINUOUS
 62
          15
100
AcDbLine
 10
107.954010009766
 20
113.929092407227
 30
0.0
 11
107.954010009766
 21
115.315933227539
 31
0.0
  0
LINE
  5
243
100
AcDbEntity
  8
0
  6
CONTINUOUS
 62
          15
100
AcDbLine
 10
109.340850830078
 20
113.929092407227
 30
0.0
 11
109.340850830078
 21
115.315933227539
 31
0.0
  0
TEXT
  5
244
100
AcDbEntity
  8
0
  6
CONTINUOUS
 62
          15
100
AcDbText
 10
107.316062927246
 20
112.209409013391
 30
0.0
 40
0.832103967667
  1
LED
 41
1.111111166824
  7
TXT
100
AcDbText
  0
TEXT
  5
245
100
AcDbEntity
  8
0
  6
CONTINUOUS
 62
          15
100
AcDbText
 10
89.841873168945
 20
114.150990739465
 30
0.0
 40
0.832103967667
  1
F2
 41
1.222222226202
  7
TXT
100
AcDbText
  0
TEXT
  5
246
100
AcDbEntity
  8
0
  6
CONTINUOUS
 62
          15
100
AcDbText
 10
87.830955505371
 20
112.789806857705
 30
0.0
 40
1.081735372543
  1
2 AMP
 41
1.055555365763
  7
TXT
100
AcDbText
  0
TEXT
  5
247
100
AcDbEntity
  8
0
  6
CONTINUOUS
 62
          15
100
AcDbText
 10
106.509262084961
 20
116.51532484591
 30
0.0
 40
0.832103967667
  1
GREEN
 41
1.055555583412
  7
TXT
100
AcDbText
  0
LINE
  5
248
100
AcDbEntity
  8
0
  6
CONTINUOUS
 62
          15
100
AcDbLine
 10
105.989707946777
 20
94.259292602539
 30
0.0
 11
111.953125
 21
94.259292602539
 31
0.0
  0
LINE
  5
249
100
AcDbEntity
  8
0
  6
CONTINUOUS
 62
          15
100
AcDbLine
 10
105.989707946777
 20
94.259292602539
 30
0.0
 11
105.989707946777
 21
102.996376037598
 31
0.0
  0
LINE
  5
24A
100
AcDbEntity
  8
0
  6
CONTINUOUS
 62
          15
100
AcDbLine
 10
111.953125
 20
102.996376037598
 30
0.0
 11
105.989707946777
 21
102.996376037598
 31
0.0
  0
LINE
  5
24B
100
AcDbEntity
  8
0
  6
CONTINUOUS
 62
          15
100
AcDbLine
 10
111.953125
 20
102.996376037598
 30
0.0
 11
111.953125
 21
94.259292602539
 31
0.0
  0
LINE
  5
24C
100
AcDbEntity
  8
0
  6
CONTINUOUS
 62
          15
100
AcDbLine
 10
94.534408569336
 20
94.259292602539
 30
0.0
 11
100.497825622559
 21
94.259292602539
 31
0.0
  0
LINE
  5
24D
100
AcDbEntity
  8
0
  6
CONTINUOUS
 62
          15
100
AcDbLine
 10
94.534408569336
 20
94.259292602539
 30
0.0
 11
94.534408569336
 21
102.996376037598
 31
0.0
  0
LINE
  5
24E
100
AcDbEntity
  8
0
  6
CONTINUOUS
 62
          15
100
AcDbLine
 10
100.497825622559
 20
102.996376037598
 30
0.0
 11
94.534408569336
 21
102.996376037598
 31
0.0
  0
LINE
  5
24F
100
AcDbEntity
  8
0
  6
CONTINUOUS
 62
          15
100
AcDbLine
 10
100.497825622559
 20
102.996376037598
 30
0.0
 11
100.497825622559
 21
94.259292602539
 31
0.0
  0
LINE
  5
250
100
AcDbEntity
  8
0
  6
CONTINUOUS
 62
          15
100
AcDbLine
 10
93.910331726074
 20
90.029426574707
 30
0.0
 11
111.800567626953
 21
90.029426574707
 31
0.0
  0
LINE
  5
251
100
AcDbEntity
  8
0
  6
CONTINUOUS
 62
          15
100
AcDbLine
 10
111.800567626953
 20
90.029426574707
 30
0.0
 11
111.800567626953
 21
85.73021697998
 31
0.0
  0
LINE
  5
252
100
AcDbEntity
  8
0
  6
CONTINUOUS
 62
          15
100
AcDbLine
 10
111.800567626953
 20
85.73021697998
 30
0.0
 11
93.910331726074
 21
85.73021697998
 31
0.0
  0
LINE
  5
253
100
AcDbEntity
  8
0
  6
CONTINUOUS
 62
          15
100
AcDbLine
 10
93.910331726074
 20
85.73021697998
 30
0.0
 11
93.910331726074
 21
90.029426574707
 31
0.0
  0
TEXT
  5
254
100
AcDbEntity
  8
0
  6
CONTINUOUS
 62
          15
100
AcDbText
 10
94.673095703125
 20
86.423641696572
 30
0.0
 40
1.081735372543
  1
SERIAL No
 41
1.02777760023
  7
TXT
100
AcDbText
  0
TEXT
  5
255
100
AcDbEntity
  8
0
  6
CONTINUOUS
 62
          15
100
AcDbText
 10
94.673095703125
 20
88.226528659463
 30
0.0
 40
1.081735372543
  1
SDXCI  ISSUE A
 41
1.017093829421
  7
TXT
100
AcDbText
  0
CIRCLE
  5
256
100
AcDbEntity
  8
0
  6
CONTINUOUS
 62
          15
100
AcDbCircle
 10
115.202835083008
 20
87.66234588623
 30
0.0
 40
1.095603585243
  0
LINE
  5
257
100
AcDbEntity
  8
0
  6
CONTINUOUS
 62
          15
100
AcDbLine
 10
117.06761932373
 20
155.688049316406
 30
0.0
 11
117.06761932373
 21
84.956108093262
 31
0.0
  0
LINE
  5
258
100
AcDbEntity
  8
0
  6
CONTINUOUS
 62
          15
100
AcDbLine
 10
104.371879577637
 20
152.445541381836
 30
0.0
 11
104.371879577637
 21
141.350814819336
 31
0.0
  0
LINE
  5
259
100
AcDbEntity
  8
0
  6
CONTINUOUS
 62
          15
100
AcDbLine
 10
104.371879577637
 20
152.445541381836
 30
0.0
 11
108.532402038574
 21
152.445541381836
 31
0.0
  0
LINE
  5
25A
100
AcDbEntity
  8
0
  6
CONTINUOUS
 62
          15
100
AcDbLine
 10
108.532402038574
 20
141.350814819336
 30
0.0
 11
108.532402038574
 21
152.445541381836
 31
0.0
  0
LINE
  5
25B
100
AcDbEntity
  8
0
  6
CONTINUOUS
 62
          15
100
AcDbLine
 10
108.532402038574
 20
141.350814819336
 30
0.0
 11
104.371879577637
 21
141.350814819336
 31
0.0
  0
LINE
  5
25C
100
AcDbEntity
  8
0
  6
CONTINUOUS
 62
          15
100
AcDbLine
 10
102.985038757324
 20
141.350814819336
 30
0.0
 11
102.291618347168
 21
141.350814819336
 31
0.0
  0
LINE
  5
25D
100
AcDbEntity
  8
0
  6
CONTINUOUS
 62
          15
100
AcDbLine
 10
102.985038757324
 20
141.350814819336
 30
0.0
 11
102.985038757324
 21
141.350814819336
 31
0.0
  0
LINE
  5
25E
100
AcDbEntity
  8
0
  6
CONTINUOUS
 62
          15
100
AcDbLine
 10
102.291618347168
 20
141.350814819336
 30
0.0
 11
102.985038757324
 21
141.350814819336
 31
0.0
  0
LINE
  5
25F
100
AcDbEntity
  8
0
  6
CONTINUOUS
 62
          15
100
AcDbLine
 10
102.291618347168
 20
141.350814819336
 30
0.0
 11
102.291618347168
 21
141.350814819336
 31
0.0
  0
LINE
  5
260
100
AcDbEntity
  8
0
  6
CONTINUOUS
 62
          15
100
AcDbLine
 10
102.291618347168
 20
142.044235229492
 30
0.0
 11
96.744262695313
 21
142.044235229492
 31
0.0
  0
LINE
  5
261
100
AcDbEntity
  8
0
  6
CONTINUOUS
 62
          15
100
AcDbLine
 10
102.291618347168
 20
142.044235229492
 30
0.0
 11
102.291618347168
 21
140.65739440918
 31
0.0
  0
LINE
  5
262
100
AcDbEntity
  8
0
  6
CONTINUOUS
 62
          15
100
AcDbLine
 10
96.744262695313
 20
140.65739440918
 30
0.0
 11
102.291618347168
 21
140.65739440918
 31
0.0
  0
LINE
  5
263
100
AcDbEntity
  8
0
  6
CONTINUOUS
 62
          15
100
AcDbLine
 10
96.744262695313
 20
140.65739440918
 30
0.0
 11
96.744262695313
 21
142.044235229492
 31
0.0
  0
LINE
  5
264
100
AcDbEntity
  8
0
  6
CONTINUOUS
 62
          15
100
AcDbLine
 10
96.744262695313
 20
141.350814819336
 30
0.0
 11
96.050842285156
 21
141.350814819336
 31
0.0
  0
LINE
  5
265
100
AcDbEntity
  8
0
  6
CONTINUOUS
 62
          15
100
AcDbLine
 10
96.744262695313
 20
141.350814819336
 30
0.0
 11
96.744262695313
 21
141.350814819336
 31
0.0
  0
LINE
  5
266
100
AcDbEntity
  8
0
  6
CONTINUOUS
 62
          15
100
AcDbLine
 10
96.050842285156
 20
141.350814819336
 30
0.0
 11
96.744262695313
 21
141.350814819336
 31
0.0
  0
LINE
  5
267
100
AcDbEntity
  8
0
  6
CONTINUOUS
 62
          15
100
AcDbLine
 10
96.050842285156
 20
141.350814819336
 30
0.0
 11
96.050842285156
 21
141.350814819336
 31
0.0
  0
LINE
  5
268
100
AcDbEntity
  8
0
  6
CONTINUOUS
 62
          15
100
AcDbLine
 10
86.953170776367
 20
140.65739440918
 30
0.0
 11
92.500534057617
 21
140.65739440918
 31
0.0
  0
LINE
  5
269
100
AcDbEntity
  8
0
  6
CONTINUOUS
 62
          15
100
AcDbLine
 10
86.953170776367
 20
140.65739440918
 30
0.0
 11
86.953170776367
 21
143.431076049805
 31
0.0
  0
LINE
  5
26A
100
AcDbEntity
  8
0
  6
CONTINUOUS
 62
          15
100
AcDbLine
 10
92.500534057617
 20
143.431076049805
 30
0.0
 11
86.953170776367
 21
143.431076049805
 31
0.0
  0
LINE
  5
26B
100
AcDbEntity
  8
0
  6
CONTINUOUS
 62
          15
100
AcDbLine
 10
92.500534057617
 20
143.431076049805
 30
0.0
 11
92.500534057617
 21
140.65739440918
 31
0.0
  0
LINE
  5
26C
100
AcDbEntity
  8
0
  6
CONTINUOUS
 62
          15
100
AcDbLine
 10
103.67845916748
 20
145.220108032227
 30
0.0
 11
103.67845916748
 21
154.165222167969
 31
0.0
  0
LINE
  5
26D
100
AcDbEntity
  8
0
  6
CONTINUOUS
 62
          15
100
AcDbLine
 10
97.021629333496
 20
148.566757202148
 30
0.0
 11
97.021629333496
 21
145.220108032227
 31
0.0
  0
LINE
  5
26E
100
AcDbEntity
  8
0
  6
CONTINUOUS
 62
          15
100
AcDbLine
 10
97.021629333496
 20
154.165222167969
 30
0.0
 11
97.021629333496
 21
150.931900024414
 31
0.0
  0
LINE
  5
26F
100
AcDbEntity
  8
0
  6
CONTINUOUS
 62
          15
100
AcDbLine
 10
109.322898864746
 20
139.492446899414
 30
0.0
 11
83.319648742676
 21
139.492446899414
 31
0.0
  0
LINE
  5
270
100
AcDbEntity
  8
0
  6
CONTINUOUS
 62
          15
100
AcDbLine
 10
83.319648742676
 20
154.581268310547
 30
0.0
 11
83.319648742676
 21
139.492446899414
 31
0.0
  0
LINE
  5
271
100
AcDbEntity
  8
0
  6
CONTINUOUS
 62
          15
100
AcDbLine
 10
83.319648742676
 20
154.581268310547
 30
0.0
 11
109.322898864746
 21
154.581268310547
 31
0.0
  0
ARC
  5
272
100
AcDbEntity
  8
0
  6
CONTINUOUS
 62
          15
100
AcDbCircle
 10
110.016319274902
 20
146.953643798828
 30
0.0
 40
5.380939006805
100
AcDbArc
 50
314.99999874776
 51
45.000001252239
  0
ARC
  5
273
100
AcDbEntity
  8
0
  6
CONTINUOUS
 62
          15
100
AcDbCircle
 10
82.972938537598
 20
146.953643798828
 30
0.0
 40
5.380939006805
100
AcDbArc
 50
135.000000341622
 51
224.999999658377
  0
LINE
  5
274
100
AcDbEntity
  8
0
  6
CONTINUOUS
 62
          15
100
AcDbLine
 10
110.182739257813
 20
138.632614135742
 30
0.0
 11
110.182739257813
 21
155.454986572266
 31
0.0
  0
LINE
  5
275
100
AcDbEntity
  8
0
  6
CONTINUOUS
 62
          15
100
AcDbLine
 10
110.182739257813
 20
138.632614135742
 30
0.0
 11
82.445938110352
 21
138.632614135742
 31
0.0
  0
LINE
  5
276
100
AcDbEntity
  8
0
  6
CONTINUOUS
 62
          15
100
AcDbLine
 10
82.445938110352
 20
155.454986572266
 30
0.0
 11
82.445938110352
 21
138.632614135742
 31
0.0
  0
LINE
  5
277
100
AcDbEntity
  8
0
  6
CONTINUOUS
 62
          15
100
AcDbLine
 10
82.445938110352
 20
155.454986572266
 30
0.0
 11
110.182739257813
 21
155.454986572266
 31
0.0
  0
ARC
  5
278
100
AcDbEntity
  8
0
  6
CONTINUOUS
 62
          15
100
AcDbCircle
 10
74.305191040039
 20
136.205642700195
 30
0.0
 40
8.501328468323
100
AcDbArc
 50
16.500000459154
 51
54.999999253785
  0
ARC
  5
279
100
AcDbEntity
  8
0
  6
CONTINUOUS
 62
          15
100
AcDbCircle
 10
73.778190612793
 20
158.048370361328
 30
0.0
 40
9.01446056366
100
AcDbArc
 50
306.499999080409
 51
343.249999249297
  0
ARC
  5
27A
100
AcDbEntity
  8
0
  6
CONTINUOUS
 62
          15
100
AcDbCircle
 10
120.59790802002
 20
133.945098876953
 30
0.0
 40
11.441430091858
100
AcDbArc
 50
126.249995260081
 51
155.750005757094
  0
ARC
  5
27B
100
AcDbEntity
  8
0
  6
CONTINUOUS
 62
          15
100
AcDbCircle
 10
120.59790802002
 20
159.781921386719
 30
0.0
 40
11.275009155273
100
AcDbArc
 50
202.500004154899
 51
232.999995327538
  0
CIRCLE
  5
27C
100
AcDbEntity
  8
0
  6
CONTINUOUS
 62
          15
100
AcDbCircle
 10
113.663703918457
 20
153.610488891602
 30
0.0
 40
1.095603585243
  0
CIRCLE
  5
27D
100
AcDbEntity
  8
0
  6
CONTINUOUS
 62
          15
100
AcDbCircle
 10
86.953170776367
 20
150.282073974609
 30
0.0
 40
0.90144598484
  0
LINE
  5
27E
100
AcDbEntity
  8
0
  6
CONTINUOUS
 62
          15
100
AcDbLine
 10
84.151756286621
 20
150.282073974609
 30
0.0
 11
81.932807922363
 21
150.282073974609
 31
0.0
  0
LINE
  5
27F
100
AcDbEntity
  8
0
  6
CONTINUOUS
 62
          15
100
AcDbLine
 10
81.932807922363
 20
151.668899536133
 30
0.0
 11
81.932807922363
 21
148.895233154297
 31
0.0
  0
LINE
  5
280
100
AcDbEntity
  8
0
  6
CONTINUOUS
 62
          15
100
AcDbLine
 10
81.516754150391
 20
151.114166259766
 30
0.0
 11
81.516754150391
 21
149.449966430664
 31
0.0
  0
LINE
  5
281
100
AcDbEntity
  8
0
  6
CONTINUOUS
 62
          15
100
AcDbLine
 10
81.100708007813
 20
150.698120117188
 30
0.0
 11
81.100708007813
 21
149.866012573242
 31
0.0
  0
LINE
  5
282
100
AcDbEntity
  8
0
  6
CONTINUOUS
 62
          15
100
AcDbLine
 10
97.423812866211
 20
149.727325439453
 30
0.0
 11
95.204872131348
 21
149.727325439453
 31
0.0
  0
LINE
  5
283
100
AcDbEntity
  8
0
  6
CONTINUOUS
 62
          15
100
AcDbLine
 10
95.204872131348
 20
151.114166259766
 30
0.0
 11
95.204872131348
 21
148.340484619141
 31
0.0
  0
LINE
  5
284
100
AcDbEntity
  8
0
  6
CONTINUOUS
 62
          15
100
AcDbLine
 10
94.788818359375
 20
150.559432983398
 30
0.0
 11
94.788818359375
 21
148.895233154297
 31
0.0
  0
LINE
  5
285
100
AcDbEntity
  8
0
  6
CONTINUOUS
 62
          15
100
AcDbLine
 10
94.372764587402
 20
150.14338684082
 30
0.0
 11
94.372764587402
 21
149.311279296875
 31
0.0
  0
ARC
  5
286
100
AcDbEntity
  8
0
  6
CONTINUOUS
 62
          15
100
AcDbCircle
 10
86.953170776367
 20
150.282073974609
 30
0.0
 40
1.664207935333
100
AcDbArc
 50
90.000002504478
 51
269.999997495521
  0
ARC
  5
287
100
AcDbEntity
  8
0
  6
CONTINUOUS
 62
          15
100
AcDbCircle
 10
86.953170776367
 20
150.282073974609
 30
0.0
 40
1.664207935333
100
AcDbArc
 50
269.74999891152
 51
90.250001088479
  0
LINE
  5
288
100
AcDbEntity
  8
0
  6
CONTINUOUS
 62
          15
100
AcDbLine
 10
103.67845916748
 20
154.165222167969
 30
0.0
 11
94.026054382324
 21
154.165222167969
 31
0.0
  0
LINE
  5
289
100
AcDbEntity
  8
0
  6
CONTINUOUS
 62
          15
100
AcDbLine
 10
94.026054382324
 20
154.165222167969
 30
0.0
 11
91.391059875488
 21
154.165222167969
 31
0.0
  0
LINE
  5
28A
100
AcDbEntity
  8
0
  6
CONTINUOUS
 62
          15
100
AcDbLine
 10
91.391059875488
 20
154.165222167969
 30
0.0
 11
91.391059875488
 21
145.220108032227
 31
0.0
  0
LINE
  5
28B
100
AcDbEntity
  8
0
  6
CONTINUOUS
 62
          15
100
AcDbLine
 10
91.391059875488
 20
145.220108032227
 30
0.0
 11
94.026054382324
 21
145.220108032227
 31
0.0
  0
LINE
  5
28C
100
AcDbEntity
  8
0
  6
CONTINUOUS
 62
          15
100
AcDbLine
 10
94.026054382324
 20
145.220108032227
 30
0.0
 11
103.67845916748
 21
145.220108032227
 31
0.0
  0
LINE
  5
28D
100
AcDbEntity
  8
0
  6
CONTINUOUS
 62
          15
100
AcDbLine
 10
94.026054382324
 20
154.165222167969
 30
0.0
 11
94.026054382324
 21
150.004699707031
 31
0.0
  0
LINE
  5
28E
100
AcDbEntity
  8
0
  6
CONTINUOUS
 62
          15
100
AcDbLine
 10
94.026054382324
 20
150.004699707031
 30
0.0
 11
94.026054382324
 21
149.727325439453
 31
0.0
  0
LINE
  5
28F
100
AcDbEntity
  8
0
  6
CONTINUOUS
 62
          15
100
AcDbLine
 10
94.026054382324
 20
149.727325439453
 30
0.0
 11
94.026054382324
 21
145.220108032227
 31
0.0
  0
LINE
  5
290
100
AcDbEntity
  8
0
  6
CONTINUOUS
 62
          15
100
AcDbLine
 10
94.026054382324
 20
149.727325439453
 30
0.0
 11
94.026054382324
 21
150.004699707031
 31
0.0
  0
LINE
  5
291
100
AcDbEntity
  8
0
  6
CONTINUOUS
 62
          15
100
AcDbLine
 10
94.026054382324
 20
150.004699707031
 30
0.0
 11
94.081527709961
 21
150.393020629883
 31
0.0
  0
LINE
  5
292
100
AcDbEntity
  8
0
  6
CONTINUOUS
 62
          15
100
AcDbLine
 10
94.081527709961
 20
150.393020629883
 30
0.0
 11
94.234077453613
 21
150.767456054688
 31
0.0
  0
LINE
  5
293
100
AcDbEntity
  8
0
  6
CONTINUOUS
 62
          15
100
AcDbLine
 10
94.234077453613
 20
150.767456054688
 30
0.0
 11
94.469841003418
 21
151.086441040039
 31
0.0
  0
LINE
  5
294
100
AcDbEntity
  8
0
  6
CONTINUOUS
 62
          15
100
AcDbLine
 10
94.469841003418
 20
151.086441040039
 30
0.0
 11
94.788818359375
 21
151.322204589844
 31
0.0
  0
LINE
  5
295
100
AcDbEntity
  8
0
  6
CONTINUOUS
 62
          15
100
AcDbLine
 10
94.788818359375
 20
151.322204589844
 30
0.0
 11
95.163261413574
 21
151.474746704102
 31
0.0
  0
LINE
  5
296
100
AcDbEntity
  8
0
  6
CONTINUOUS
 62
          15
100
AcDbLine
 10
95.163261413574
 20
151.474746704102
 30
0.0
 11
95.551574707031
 21
151.530227661133
 31
0.0
  0
LINE
  5
297
100
AcDbEntity
  8
0
  6
CONTINUOUS
 62
          15
100
AcDbLine
 10
95.551574707031
 20
151.530227661133
 30
0.0
 11
95.69026184082
 21
151.530227661133
 31
0.0
  0
LINE
  5
298
100
AcDbEntity
  8
0
  6
CONTINUOUS
 62
          15
100
AcDbLine
 10
95.69026184082
 20
151.530227661133
 30
0.0
 11
96.16178894043
 21
151.474746704102
 31
0.0
  0
LINE
  5
299
100
AcDbEntity
  8
0
  6
CONTINUOUS
 62
          15
100
AcDbLine
 10
96.16178894043
 20
151.474746704102
 30
0.0
 11
96.59171295166
 21
151.294464111328
 31
0.0
  0
LINE
  5
29A
100
AcDbEntity
  8
0
  6
CONTINUOUS
 62
          15
100
AcDbLine
 10
96.59171295166
 20
151.294464111328
 30
0.0
 11
96.966156005859
 21
151.003219604492
 31
0.0
  0
LINE
  5
29B
100
AcDbEntity
  8
0
  6
CONTINUOUS
 62
          15
100
AcDbLine
 10
96.966156005859
 20
151.003219604492
 30
0.0
 11
97.257392883301
 21
150.628784179688
 31
0.0
  0
LINE
  5
29C
100
AcDbEntity
  8
0
  6
CONTINUOUS
 62
          15
100
AcDbLine
 10
97.257392883301
 20
150.628784179688
 30
0.0
 11
97.437683105469
 21
150.198852539063
 31
0.0
  0
LINE
  5
29D
100
AcDbEntity
  8
0
  6
CONTINUOUS
 62
          15
100
AcDbLine
 10
97.437683105469
 20
150.198852539063
 30
0.0
 11
97.493156433105
 21
149.727325439453
 31
0.0
  0
LINE
  5
29E
100
AcDbEntity
  8
0
  6
CONTINUOUS
 62
          15
100
AcDbLine
 10
97.493156433105
 20
149.727325439453
 30
0.0
 11
97.437683105469
 21
149.297409057617
 31
0.0
  0
LINE
  5
29F
100
AcDbEntity
  8
0
  6
CONTINUOUS
 62
          15
100
AcDbLine
 10
97.437683105469
 20
149.297409057617
 30
0.0
 11
97.271263122559
 21
148.895233154297
 31
0.0
  0
LINE
  5
2A0
100
AcDbEntity
  8
0
  6
CONTINUOUS
 62
          15
100
AcDbLine
 10
97.271263122559
 20
148.895233154297
 30
0.0
 11
97.007759094238
 21
148.548522949219
 31
0.0
  0
LINE
  5
2A1
100
AcDbEntity
  8
0
  6
CONTINUOUS
 62
          15
100
AcDbLine
 10
97.007759094238
 20
148.548522949219
 30
0.0
 11
96.66104888916
 21
148.285018920898
 31
0.0
  0
LINE
  5
2A2
100
AcDbEntity
  8
0
  6
CONTINUOUS
 62
          15
100
AcDbLine
 10
96.66104888916
 20
148.285018920898
 30
0.0
 11
96.258865356445
 21
148.118606567383
 31
0.0
  0
LINE
  5
2A3
100
AcDbEntity
  8
0
  6
CONTINUOUS
 62
          15
100
AcDbLine
 10
96.258865356445
 20
148.118606567383
 30
0.0
 11
95.828941345215
 21
148.063125610352
 31
0.0
  0
LINE
  5
2A4
100
AcDbEntity
  8
0
  6
CONTINUOUS
 62
          15
100
AcDbLine
 10
95.828941345215
 20
148.063125610352
 30
0.0
 11
95.69026184082
 21
148.063125610352
 31
0.0
  0
LINE
  5
2A5
100
AcDbEntity
  8
0
  6
CONTINUOUS
 62
          15
100
AcDbLine
 10
95.69026184082
 20
148.063125610352
 30
0.0
 11
95.26033782959
 21
148.118606567383
 31
0.0
  0
LINE
  5
2A6
100
AcDbEntity
  8
0
  6
CONTINUOUS
 62
          15
100
AcDbLine
 10
95.26033782959
 20
148.118606567383
 30
0.0
 11
94.858154296875
 21
148.285018920898
 31
0.0
  0
LINE
  5
2A7
100
AcDbEntity
  8
0
  6
CONTINUOUS
 62
          15
100
AcDbLine
 10
94.85816192627
 20
148.285018920898
 30
0.0
 11
94.511451721191
 21
148.548522949219
 31
0.0
  0
LINE
  5
2A8
100
AcDbEntity
  8
0
  6
CONTINUOUS
 62
          15
100
AcDbLine
 10
94.511451721191
 20
148.548522949219
 30
0.0
 11
94.247947692871
 21
148.895233154297
 31
0.0
  0
LINE
  5
2A9
100
AcDbEntity
  8
0
  6
CONTINUOUS
 62
          15
100
AcDbLine
 10
94.247947692871
 20
148.895233154297
 30
0.0
 11
94.081527709961
 21
149.297409057617
 31
0.0
  0
LINE
  5
2AA
100
AcDbEntity
  8
0
  6
CONTINUOUS
 62
          15
100
AcDbLine
 10
94.081527709961
 20
149.297409057617
 30
0.0
 11
94.026054382324
 21
149.727325439453
 31
0.0
  0
TEXT
  5
2AB
100
AcDbEntity
  8
0
  6
CONTINUOUS
 62
          15
100
AcDbText
 10
92.084476962686
 20
152.889327988744
 30
0.0
 40
1.081735372543
  1
240Vac
 50
-90.000002504478
 41
1.04444425955
  7
TXT
100
AcDbText
  0
TEXT
  5
2AC
100
AcDbEntity
  8
0
  6
CONTINUOUS
 62
          15
100
AcDbText
 10
106.923665300012
 20
148.201812733229
 30
0.0
 40
0.832103967667
  1
F1
 50
-90.000002504478
 41
1.222222226202
  7
TXT
100
AcDbText
  0
LINE
  5
2AD
100
AcDbEntity
  8
0
  6
CONTINUOUS
 62
          15
100
AcDbLine
 10
101.999229431152
 20
149.345138549805
 30
0.0
 11
102.733673095703
 21
150.079574584961
 31
0.0
  0
LINE
  5
2AE
100
AcDbEntity
  8
0
  6
CONTINUOUS
 62
          15
100
AcDbLine
 10
99.930046081543
 20
150.217803955078
 30
0.0
 11
99.930046081543
 21
149.206893920898
 31
0.0
  0
LINE
  5
2AF
100
AcDbEntity
  8
0
  6
CONTINUOUS
 62
          15
100
AcDbLine
 10
99.930046081543
 20
149.206893920898
 30
0.0
 11
98.137229919434
 21
149.206893920898
 31
0.0
  0
LINE
  5
2B0
100
AcDbEntity
  8
0
  6
CONTINUOUS
 62
          15
100
AcDbLine
 10
98.137229919434
 20
149.206893920898
 30
0.0
 11
98.137229919434
 21
150.217803955078
 31
0.0
  0
LINE
  5
2B1
100
AcDbEntity
  8
0
  6
CONTINUOUS
 62
          15
100
AcDbLine
 10
98.137229919434
 20
150.217803955078
 30
0.0
 11
99.930046081543
 21
150.217803955078
 31
0.0
  0
LINE
  5
2B2
100
AcDbEntity
  8
0
  6
CONTINUOUS
 62
          15
100
AcDbLine
 10
98.738929748535
 20
150.217803955078
 30
0.0
 11
98.738929748535
 21
149.206893920898
 31
0.0
  0
ELLIPSE
  5
2B3
100
AcDbEntity
  8
0
  6
CONTINUOUS
 62
          15
100
AcDbEllipse
 10
102.366439819336
 20
149.712341308594
 30
0.0
 11
-0.0000000321504533
 21
-0.7355166077613824
 31
0.0
210
0.0
220
0.0
230
1.0
 40
0.624739291281
 41
0.0
 42
6.2831853071795862
  0
TEXT
  5
2B4
100
AcDbEntity
  8
0
  6
CONTINUOUS
 62
          15
100
AcDbText
 10
94.649516701698
 20
153.054565412229
 30
0.0
 40
1.331366300583
  1
L   N
 50
-90.000002504478
 41
1.133680677739
  7
TXT
100
AcDbText
  0
LINE
  5
2B5
100
AcDbEntity
  8
0
  6
CONTINUOUS
 62
          15
100
AcDbLine
 10
102.001953125
 20
146.126190185547
 30
0.0
 11
102.736396789551
 21
146.860641479492
 31
0.0
  0
LINE
  5
2B6
100
AcDbEntity
  8
0
  6
CONTINUOUS
 62
          15
100
AcDbLine
 10
99.932777404785
 20
146.99885559082
 30
0.0
 11
99.932777404785
 21
145.98796081543
 31
0.0
  0
LINE
  5
2B7
100
AcDbEntity
  8
0
  6
CONTINUOUS
 62
          15
100
AcDbLine
 10
99.932777404785
 20
145.98796081543
 30
0.0
 11
98.139961242676
 21
145.98796081543
 31
0.0
  0
LINE
  5
2B8
100
AcDbEntity
  8
0
  6
CONTINUOUS
 62
          15
100
AcDbLine
 10
98.139961242676
 20
145.98796081543
 30
0.0
 11
98.139961242676
 21
146.99885559082
 31
0.0
  0
LINE
  5
2B9
100
AcDbEntity
  8
0
  6
CONTINUOUS
 62
          15
100
AcDbLine
 10
98.139961242676
 20
146.99885559082
 30
0.0
 11
99.932777404785
 21
146.99885559082
 31
0.0
  0
LINE
  5
2BA
100
AcDbEntity
  8
0
  6
CONTINUOUS
 62
          15
100
AcDbLine
 10
98.741661071777
 20
146.99885559082
 30
0.0
 11
98.741661071777
 21
145.98796081543
 31
0.0
  0
ELLIPSE
  5
2BB
100
AcDbEntity
  8
0
  6
CONTINUOUS
 62
          15
100
AcDbEllipse
 10
102.369171142578
 20
146.493408203125
 30
0.0
 11
-0.0000000321504533
 21
-0.7355166077613824
 31
0.0
210
0.0
220
0.0
230
1.0
 40
0.624739291281
 41
0.0
 42
6.2831853071795862
  0
LINE
  5
2BC
100
AcDbEntity
  8
0
  6
CONTINUOUS
 62
          15
100
AcDbLine
 10
102.001953125
 20
152.152694702148
 30
0.0
 11
102.736396789551
 21
152.887145996094
 31
0.0
  0
LINE
  5
2BD
100
AcDbEntity
  8
0
  6
CONTINUOUS
 62
          15
100
AcDbLine
 10
99.932777404785
 20
153.025360107422
 30
0.0
 11
99.932777404785
 21
152.014465332031
 31
0.0
  0
LINE
  5
2BE
100
AcDbEntity
  8
0
  6
CONTINUOUS
 62
          15
100
AcDbLine
 10
99.932777404785
 20
152.014465332031
 30
0.0
 11
98.139961242676
 21
152.014465332031
 31
0.0
  0
LINE
  5
2BF
100
AcDbEntity
  8
0
  6
CONTINUOUS
 62
          15
100
AcDbLine
 10
98.139961242676
 20
152.014465332031
 30
0.0
 11
98.139961242676
 21
153.025360107422
 31
0.0
  0
LINE
  5
2C0
100
AcDbEntity
  8
0
  6
CONTINUOUS
 62
          15
100
AcDbLine
 10
98.139961242676
 20
153.025360107422
 30
0.0
 11
99.932777404785
 21
153.025360107422
 31
0.0
  0
LINE
  5
2C1
100
AcDbEntity
  8
0
  6
CONTINUOUS
 62
          15
100
AcDbLine
 10
98.741661071777
 20
153.025360107422
 30
0.0
 11
98.741661071777
 21
152.014465332031
 31
0.0
  0
ELLIPSE
  5
2C2
100
AcDbEntity
  8
0
  6
CONTINUOUS
 62
          15
100
AcDbEllipse
 10
102.369171142578
 20
152.519912719727
 30
0.0
 11
-0.0000000321504533
 21
-0.7355166077613824
 31
0.0
210
0.0
220
0.0
230
1.0
 40
0.624739291281
 41
0.0
 42
6.2831853071795862
  0
LINE
  5
2C3
100
AcDbEntity
  8
0
  6
CONTINUOUS
 62
          15
100
AcDbLine
 10
101.248184204102
 20
154.165222167969
 30
0.0
 11
101.248184204102
 21
145.220108032227
 31
0.0
  0
LINE
  5
2C4
100
AcDbEntity
  8
0
  6
CONTINUOUS
 62
          15
100
AcDbLine
 10
97.021629333496
 20
151.113708496094
 30
0.0
 11
103.67845916748
 21
151.113708496094
 31
0.0
  0
LINE
  5
2C5
100
AcDbEntity
  8
0
  6
CONTINUOUS
 62
          15
100
AcDbLine
 10
97.021629333496
 20
148.050521850586
 30
0.0
 11
103.67845916748
 21
148.050521850586
 31
0.0
  0
LINE
  5
2C6
100
AcDbEntity
  8
0
  6
CONTINUOUS
 62
          15
100
AcDbLine
 10
96.531631469727
 20
146.493408203125
 30
0.0
 11
98.741661071777
 21
146.493408203125
 31
0.0
  0
LINE
  5
2C7
100
AcDbEntity
  8
0
  6
CONTINUOUS
 62
          15
100
AcDbLine
 10
90.524673461914
 20
146.493408203125
 30
0.0
 11
96.531631469727
 21
146.493408203125
 31
0.0
  0
LINE
  5
2C8
100
AcDbEntity
  8
0
  6
CONTINUOUS
 62
          15
100
AcDbLine
 10
84.848564147949
 20
146.493408203125
 30
0.0
 11
90.524673461914
 21
146.493408203125
 31
0.0
  0
LINE
  5
2C9
100
AcDbEntity
  8
0
  6
CONTINUOUS
 62
          15
100
AcDbLine
 10
97.717208862305
 20
149.712341308594
 30
0.0
 11
98.738929748535
 21
149.712341308594
 31
0.0
  0
LINE
  5
2CA
100
AcDbEntity
  8
0
  6
CONTINUOUS
 62
          15
100
AcDbLine
 10
90.524673461914
 20
149.712341308594
 30
0.0
 11
97.717208862305
 21
149.712341308594
 31
0.0
  0
LINE
  5
2CB
100
AcDbEntity
  8
0
  6
CONTINUOUS
 62
          15
100
AcDbLine
 10
87.024406433105
 20
149.712341308594
 30
0.0
 11
90.524673461914
 21
149.712341308594
 31
0.0
  0
LINE
  5
2CC
100
AcDbEntity
  8
0
  6
CONTINUOUS
 62
          15
100
AcDbLine
 10
96.531631469727
 20
152.519912719727
 30
0.0
 11
98.741661071777
 21
152.519912719727
 31
0.0
  0
LINE
  5
2CD
100
AcDbEntity
  8
0
  6
CONTINUOUS
 62
          15
100
AcDbLine
 10
90.524673461914
 20
152.519912719727
 30
0.0
 11
96.531631469727
 21
152.519912719727
 31
0.0
  0
LINE
  5
2CE
100
AcDbEntity
  8
0
  6
CONTINUOUS
 62
          15
100
AcDbLine
 10
89.294853210449
 20
152.519912719727
 30
0.0
 11
90.524673461914
 21
152.519912719727
 31
0.0
  0
LINE
  5
2CF
100
AcDbEntity
  8
0
  6
CONTINUOUS
 62
          15
100
AcDbLine
 10
89.294853210449
 20
152.519912719727
 30
0.0
 11
89.294853210449
 21
160.27018737793
 31
0.0
  0
LINE
  5
2D0
100
AcDbEntity
  8
0
  6
CONTINUOUS
 62
          15
100
AcDbLine
 10
87.024406433105
 20
149.712341308594
 30
0.0
 11
87.024406433105
 21
160.27018737793
 31
0.0
  0
LINE
  5
2D1
100
AcDbEntity
  8
0
  6
CONTINUOUS
 62
          15
100
AcDbLine
 10
84.848564147949
 20
146.493408203125
 30
0.0
 11
84.848564147949
 21
160.27018737793
 31
0.0
  0
TEXT
  5
2D2
100
AcDbEntity
  8
0
  6
CONTINUOUS
 62
          15
100
AcDbText
 10
87.729018568993
 20
161.297805769085
 30
0.0
 40
1.299999952316
  1
EARTH
 50
90.000002504478
 41
1.2
  7
GOTHICI
100
AcDbText
  0
TEXT
  5
2D3
100
AcDbEntity
  8
0
  6
CONTINUOUS
 62
          15
100
AcDbText
 10
85.278815627098
 20
161.297805769085
 30
0.0
 40
1.299999952316
  1
NEUTRAL
 50
90.000002504478
 41
1.2
  7
GOTHICI
100
AcDbText
  0
TEXT
  5
2D4
100
AcDbEntity
  8
0
  6
CONTINUOUS
 62
          15
100
AcDbText
 10
90.021148085594
 20
161.297805769085
 30
0.0
 40
1.299999952316
  1
LIVE
 50
90.000002504478
 41
1.2
  7
GOTHICI
100
AcDbText
  0
TEXT
  5
2D5
100
AcDbEntity
  8
0
  6
CONTINUOUS
 62
          15
100
AcDbText
 10
92.291862487793
 20
164.871277451515
 30
0.0
 40
1.299999952316
  1
240 Vac SUPPLY
  7
GOTHICG
100
AcDbText
  0
TEXT
  5
2D6
100
AcDbEntity
  8
0
  6
CONTINUOUS
 62
          15
100
AcDbText
 10
91.903213500977
 20
162.696640610695
 30
0.0
 40
1.299999952316
  1
FUSED AT 3 AMPS
  7
GOTHICG
100
AcDbText
  0
LINE
  5
2D7
100
AcDbEntity
  8
0
  6
CONTINUOUS
 62
          15
100
AcDbLine
 10
46.735637664795
 20
149.651611328125
 30
0.0
 11
38.581016540527
 21
149.651611328125
 31
0.0
  0
LINE
  5
2D8
100
AcDbEntity
  8
0
  6
CONTINUOUS
 62
          15
100
AcDbLine
 10
46.735637664795
 20
149.651611328125
 30
0.0
 11
46.735637664795
 21
141.496994018555
 31
0.0
  0
LINE
  5
2D9
100
AcDbEntity
  8
0
  6
CONTINUOUS
 62
          15
100
AcDbLine
 10
38.581016540527
 20
141.496994018555
 30
0.0
 11
46.735637664795
 21
141.496994018555
 31
0.0
  0
LINE
  5
2DA
100
AcDbEntity
  8
0
  6
CONTINUOUS
 62
          15
100
AcDbLine
 10
38.581016540527
 20
141.496994018555
 30
0.0
 11
38.581016540527
 21
154.671981811523
 31
0.0
  0
LINE
  5
2DB
100
AcDbEntity
  8
0
  6
CONTINUOUS
 62
          15
100
AcDbLine
 10
61.602565765381
 20
140.803573608398
 30
0.0
 11
61.602565765381
 21
139.416732788086
 31
0.0
  0
LINE
  5
2DC
100
AcDbEntity
  8
0
  6
CONTINUOUS
 62
          15
100
AcDbLine
 10
61.602565765381
 20
140.803573608398
 30
0.0
 11
74.084121704102
 21
140.803573608398
 31
0.0
  0
LINE
  5
2DD
100
AcDbEntity
  8
0
  6
CONTINUOUS
 62
          15
100
AcDbLine
 10
74.084121704102
 20
139.416732788086
 30
0.0
 11
74.084121704102
 21
140.803573608398
 31
0.0
  0
LINE
  5
2DE
100
AcDbEntity
  8
0
  6
CONTINUOUS
 62
          15
100
AcDbLine
 10
74.084121704102
 20
139.416732788086
 30
0.0
 11
61.602565765381
 21
139.416732788086
 31
0.0
  0
LINE
  5
2DF
100
AcDbEntity
  8
0
  6
CONTINUOUS
 62
          15
100
AcDbLine
 10
74.777542114258
 20
142.3291015625
 30
0.0
 11
74.777542114258
 21
149.263305664063
 31
0.0
  0
LINE
  5
2E0
100
AcDbEntity
  8
0
  6
CONTINUOUS
 62
          15
100
AcDbLine
 10
74.777542114258
 20
142.3291015625
 30
0.0
 11
69.230178833008
 21
142.3291015625
 31
0.0
  0
LINE
  5
2E1
100
AcDbEntity
  8
0
  6
CONTINUOUS
 62
          15
100
AcDbLine
 10
69.230178833008
 20
149.263305664063
 30
0.0
 11
69.230178833008
 21
142.3291015625
 31
0.0
  0
LINE
  5
2E2
100
AcDbEntity
  8
0
  6
CONTINUOUS
 62
          15
100
AcDbLine
 10
69.230178833008
 20
149.263305664063
 30
0.0
 11
74.777542114258
 21
149.263305664063
 31
0.0
  0
LINE
  5
2E3
100
AcDbEntity
  8
0
  6
CONTINUOUS
 62
          15
100
AcDbLine
 10
29.497215270996
 20
141.358306884766
 30
0.0
 11
29.150503158569
 21
141.358306884766
 31
0.0
  0
LINE
  5
2E4
100
AcDbEntity
  8
0
  6
CONTINUOUS
 62
          15
100
AcDbLine
 10
24.504594802856
 20
141.358306884766
 30
0.0
 11
24.851295471191
 21
141.358306884766
 31
0.0
  0
LINE
  5
2E5
100
AcDbEntity
  8
0
  6
CONTINUOUS
 62
          15
100
AcDbLine
 10
29.081165313721
 20
142.051727294922
 30
0.0
 11
24.712608337402
 21
142.051727294922
 31
0.0
  0
LINE
  5
2E6
100
AcDbEntity
  8
0
  6
CONTINUOUS
 62
          15
100
AcDbLine
 10
29.081165313721
 20
142.051727294922
 30
0.0
 11
29.081165313721
 21
140.664886474609
 31
0.0
  0
LINE
  5
2E7
100
AcDbEntity
  8
0
  6
CONTINUOUS
 62
          15
100
AcDbLine
 10
24.712608337402
 20
140.664886474609
 30
0.0
 11
29.081165313721
 21
140.664886474609
 31
0.0
  0
LINE
  5
2E8
100
AcDbEntity
  8
0
  6
CONTINUOUS
 62
          15
100
AcDbLine
 10
24.712608337402
 20
140.664886474609
 30
0.0
 11
24.712608337402
 21
142.051727294922
 31
0.0
  0
LINE
  5
2E9
100
AcDbEntity
  8
0
  6
CONTINUOUS
 62
          15
100
AcDbLine
 10
24.157873153687
 20
144.894744873047
 30
0.0
 11
24.157873153687
 21
145.241455078125
 31
0.0
  0
LINE
  5
2EA
100
AcDbEntity
  8
0
  6
CONTINUOUS
 62
          15
100
AcDbLine
 10
24.157873153687
 20
149.88737487793
 30
0.0
 11
24.157873153687
 21
149.540664672852
 31
0.0
  0
LINE
  5
2EB
100
AcDbEntity
  8
0
  6
CONTINUOUS
 62
          15
100
AcDbLine
 10
24.851295471191
 20
145.310806274414
 30
0.0
 11
24.851295471191
 21
149.679351806641
 31
0.0
  0
LINE
  5
2EC
100
AcDbEntity
  8
0
  6
CONTINUOUS
 62
          15
100
AcDbLine
 10
24.851295471191
 20
145.310806274414
 30
0.0
 11
23.464462280273
 21
145.310806274414
 31
0.0
  0
LINE
  5
2ED
100
AcDbEntity
  8
0
  6
CONTINUOUS
 62
          15
100
AcDbLine
 10
23.464462280273
 20
149.679351806641
 30
0.0
 11
23.464462280273
 21
145.310806274414
 31
0.0
  0
LINE
  5
2EE
100
AcDbEntity
  8
0
  6
CONTINUOUS
 62
          15
100
AcDbLine
 10
23.464462280273
 20
149.679351806641
 30
0.0
 11
24.851295471191
 21
149.679351806641
 31
0.0
  0
LINE
  5
2EF
100
AcDbEntity
  8
0
  6
CONTINUOUS
 62
          15
100
AcDbLine
 10
37.194183349609
 20
144.894744873047
 30
0.0
 11
37.194183349609
 21
145.241455078125
 31
0.0
  0
LINE
  5
2F0
100
AcDbEntity
  8
0
  6
CONTINUOUS
 62
          15
100
AcDbLine
 10
37.194183349609
 20
149.88737487793
 30
0.0
 11
37.194183349609
 21
149.540664672852
 31
0.0
  0
LINE
  5
2F1
100
AcDbEntity
  8
0
  6
CONTINUOUS
 62
          15
100
AcDbLine
 10
37.887599945068
 20
145.310806274414
 30
0.0
 11
37.887599945068
 21
149.679351806641
 31
0.0
  0
LINE
  5
2F2
100
AcDbEntity
  8
0
  6
CONTINUOUS
 62
          15
100
AcDbLine
 10
37.887599945068
 20
145.310806274414
 30
0.0
 11
36.500762939453
 21
145.310806274414
 31
0.0
  0
LINE
  5
2F3
100
AcDbEntity
  8
0
  6
CONTINUOUS
 62
          15
100
AcDbLine
 10
36.500762939453
 20
149.679351806641
 30
0.0
 11
36.500762939453
 21
145.310806274414
 31
0.0
  0
LINE
  5
2F4
100
AcDbEntity
  8
0
  6
CONTINUOUS
 62
          15
100
AcDbLine
 10
36.500762939453
 20
149.679351806641
 30
0.0
 11
37.887599945068
 21
149.679351806641
 31
0.0
  0
LINE
  5
2F5
100
AcDbEntity
  8
0
  6
CONTINUOUS
 62
          15
100
AcDbLine
 10
35.377422332764
 20
142.037857055664
 30
0.0
 11
35.377422332764
 21
140.678756713867
 31
0.0
  0
LINE
  5
2F6
100
AcDbEntity
  8
0
  6
CONTINUOUS
 62
          15
100
AcDbLine
 10
31.286237716675
 20
142.037857055664
 30
0.0
 11
35.377422332764
 21
142.037857055664
 31
0.0
  0
LINE
  5
2F7
100
AcDbEntity
  8
0
  6
CONTINUOUS
 62
          15
100
AcDbLine
 10
31.286237716675
 20
142.037857055664
 30
0.0
 11
31.286237716675
 21
140.678756713867
 31
0.0
  0
LINE
  5
2F8
100
AcDbEntity
  8
0
  6
CONTINUOUS
 62
          15
100
AcDbLine
 10
35.377422332764
 20
140.678756713867
 30
0.0
 11
31.286237716675
 21
140.678756713867
 31
0.0
  0
LINE
  5
2F9
100
AcDbEntity
  8
0
  6
CONTINUOUS
 62
          15
100
AcDbLine
 10
48.011539459229
 20
146.850204467773
 30
0.0
 11
48.704948425293
 21
146.850204467773
 31
0.0
  0
LINE
  5
2FA
100
AcDbEntity
  8
0
  6
CONTINUOUS
 62
          15
100
AcDbLine
 10
48.011539459229
 20
146.850204467773
 30
0.0
 11
48.011539459229
 21
148.237045288086
 31
0.0
  0
LINE
  5
2FB
100
AcDbEntity
  8
0
  6
CONTINUOUS
 62
          15
100
AcDbLine
 10
48.704948425293
 20
148.237045288086
 30
0.0
 11
48.011539459229
 21
148.237045288086
 31
0.0
  0
LINE
  5
2FC
100
AcDbEntity
  8
0
  6
CONTINUOUS
 62
          15
100
AcDbLine
 10
48.704948425293
 20
148.237045288086
 30
0.0
 11
48.704948425293
 21
146.850204467773
 31
0.0
  0
LINE
  5
2FD
100
AcDbEntity
  8
0
  6
CONTINUOUS
 62
          15
100
AcDbLine
 10
48.011539459229
 20
144.769943237305
 30
0.0
 11
60.493087768555
 21
144.769943237305
 31
0.0
  0
LINE
  5
2FE
100
AcDbEntity
  8
0
  6
CONTINUOUS
 62
          15
100
AcDbLine
 10
48.011539459229
 20
144.769943237305
 30
0.0
 11
48.011539459229
 21
150.317291259766
 31
0.0
  0
LINE
  5
2FF
100
AcDbEntity
  8
0
  6
CONTINUOUS
 62
          15
100
AcDbLine
 10
60.493091583252
 20
150.317291259766
 30
0.0
 11
48.011539459229
 21
150.317291259766
 31
0.0
  0
LINE
  5
300
100
AcDbEntity
  8
0
  6
CONTINUOUS
 62
          15
100
AcDbLine
 10
60.493091583252
 20
150.317291259766
 30
0.0
 11
60.493091583252
 21
144.769943237305
 31
0.0
  0
LINE
  5
301
100
AcDbEntity
  8
0
  6
CONTINUOUS
 62
          15
100
AcDbLine
 10
61.463878631592
 20
151.482238769531
 30
0.0
 11
63.100353240967
 21
151.482238769531
 31
0.0
  0
LINE
  5
302
100
AcDbEntity
  8
0
  6
CONTINUOUS
 62
          15
100
AcDbLine
 10
61.463878631592
 20
151.482238769531
 30
0.0
 11
61.463878631592
 21
147.113693237305
 31
0.0
  0
LINE
  5
303
100
AcDbEntity
  8
0
  6
CONTINUOUS
 62
          15
100
AcDbLine
 10
63.100353240967
 20
147.113693237305
 30
0.0
 11
61.463878631592
 21
147.113693237305
 31
0.0
  0
LINE
  5
304
100
AcDbEntity
  8
0
  6
CONTINUOUS
 62
          15
100
AcDbLine
 10
63.100353240967
 20
147.113693237305
 30
0.0
 11
63.100353240967
 21
151.482238769531
 31
0.0
  0
LINE
  5
305
100
AcDbEntity
  8
0
  6
CONTINUOUS
 62
          15
100
AcDbLine
 10
61.602565765381
 20
147.183044433594
 30
0.0
 11
61.602565765381
 21
145.796203613281
 31
0.0
  0
LINE
  5
306
100
AcDbEntity
  8
0
  6
CONTINUOUS
 62
          15
100
AcDbLine
 10
62.989406585693
 20
147.183044433594
 30
0.0
 11
62.989406585693
 21
145.796203613281
 31
0.0
  0
LINE
  5
307
100
AcDbEntity
  8
0
  6
CONTINUOUS
 62
          15
100
AcDbLine
 10
64.376243591309
 20
146.697647094727
 30
0.0
 11
64.376243591309
 21
147.044357299805
 31
0.0
  0
LINE
  5
308
100
AcDbEntity
  8
0
  6
CONTINUOUS
 62
          15
100
AcDbLine
 10
64.376243591309
 20
151.690277099609
 30
0.0
 11
64.376243591309
 21
151.343551635742
 31
0.0
  0
LINE
  5
309
100
AcDbEntity
  8
0
  6
CONTINUOUS
 62
          15
100
AcDbLine
 10
65.06965637207
 20
147.044357299805
 30
0.0
 11
65.06965637207
 21
151.412902832031
 31
0.0
  0
LINE
  5
30A
100
AcDbEntity
  8
0
  6
CONTINUOUS
 62
          15
100
AcDbLine
 10
65.06965637207
 20
147.044357299805
 30
0.0
 11
63.682819366455
 21
147.044357299805
 31
0.0
  0
LINE
  5
30B
100
AcDbEntity
  8
0
  6
CONTINUOUS
 62
          15
100
AcDbLine
 10
63.682819366455
 20
151.412902832031
 30
0.0
 11
63.682819366455
 21
147.044357299805
 31
0.0
  0
LINE
  5
30C
100
AcDbEntity
  8
0
  6
CONTINUOUS
 62
          15
100
AcDbLine
 10
63.682819366455
 20
151.412902832031
 30
0.0
 11
65.06965637207
 21
151.412902832031
 31
0.0
  0
LINE
  5
30D
100
AcDbEntity
  8
0
  6
CONTINUOUS
 62
          15
100
AcDbLine
 10
66.595184326172
 20
151.828948974609
 30
0.0
 11
66.595184326172
 21
151.482238769531
 31
0.0
  0
LINE
  5
30E
100
AcDbEntity
  8
0
  6
CONTINUOUS
 62
          15
100
AcDbLine
 10
66.595184326172
 20
146.836334228516
 30
0.0
 11
66.595184326172
 21
147.183044433594
 31
0.0
  0
LINE
  5
30F
100
AcDbEntity
  8
0
  6
CONTINUOUS
 62
          15
100
AcDbLine
 10
65.901763916016
 20
151.482238769531
 30
0.0
 11
65.901763916016
 21
147.113693237305
 31
0.0
  0
LINE
  5
310
100
AcDbEntity
  8
0
  6
CONTINUOUS
 62
          15
100
AcDbLine
 10
65.901763916016
 20
151.482238769531
 30
0.0
 11
67.288604736328
 21
151.482238769531
 31
0.0
  0
LINE
  5
311
100
AcDbEntity
  8
0
  6
CONTINUOUS
 62
          15
100
AcDbLine
 10
67.288604736328
 20
147.113693237305
 30
0.0
 11
67.288604736328
 21
151.482238769531
 31
0.0
  0
LINE
  5
312
100
AcDbEntity
  8
0
  6
CONTINUOUS
 62
          15
100
AcDbLine
 10
67.288604736328
 20
147.113693237305
 30
0.0
 11
65.901763916016
 21
147.113693237305
 31
0.0
  0
LINE
  5
313
100
AcDbEntity
  8
0
  6
CONTINUOUS
 62
          15
100
AcDbLine
 10
60.909141540527
 20
144.131988525391
 30
0.0
 11
60.909141540527
 21
144.131988525391
 31
0.0
  0
LINE
  5
314
100
AcDbEntity
  8
0
  6
CONTINUOUS
 62
          15
100
AcDbLine
 10
60.909141540527
 20
144.131988525391
 30
0.0
 11
62.29598236084
 21
144.131988525391
 31
0.0
  0
LINE
  5
315
100
AcDbEntity
  8
0
  6
CONTINUOUS
 62
          15
100
AcDbLine
 10
62.29598236084
 20
144.131988525391
 30
0.0
 11
62.29598236084
 21
144.131988525391
 31
0.0
  0
LINE
  5
316
100
AcDbEntity
  8
0
  6
CONTINUOUS
 62
          15
100
AcDbLine
 10
62.29598236084
 20
144.131988525391
 30
0.0
 11
60.909141540527
 21
144.131988525391
 31
0.0
  0
LINE
  5
317
100
AcDbEntity
  8
0
  6
CONTINUOUS
 62
          15
100
AcDbLine
 10
61.602565765381
 20
143.785278320313
 30
0.0
 11
61.602565765381
 21
143.438568115234
 31
0.0
  0
LINE
  5
318
100
AcDbEntity
  8
0
  6
CONTINUOUS
 62
          15
100
AcDbLine
 10
61.602565765381
 20
143.785278320313
 30
0.0
 11
61.602565765381
 21
143.785278320313
 31
0.0
  0
LINE
  5
319
100
AcDbEntity
  8
0
  6
CONTINUOUS
 62
          15
100
AcDbLine
 10
61.602565765381
 20
143.438568115234
 30
0.0
 11
61.602565765381
 21
143.785278320313
 31
0.0
  0
LINE
  5
31A
100
AcDbEntity
  8
0
  6
CONTINUOUS
 62
          15
100
AcDbLine
 10
61.602565765381
 20
143.438568115234
 30
0.0
 11
61.602565765381
 21
143.438568115234
 31
0.0
  0
LINE
  5
31B
100
AcDbEntity
  8
0
  6
CONTINUOUS
 62
          15
100
AcDbLine
 10
61.602565765381
 20
144.131988525391
 30
0.0
 11
61.602565765381
 21
144.478698730469
 31
0.0
  0
LINE
  5
31C
100
AcDbEntity
  8
0
  6
CONTINUOUS
 62
          15
100
AcDbLine
 10
61.602565765381
 20
144.131988525391
 30
0.0
 11
61.602565765381
 21
144.131988525391
 31
0.0
  0
LINE
  5
31D
100
AcDbEntity
  8
0
  6
CONTINUOUS
 62
          15
100
AcDbLine
 10
61.602565765381
 20
144.478698730469
 30
0.0
 11
61.602565765381
 21
144.131988525391
 31
0.0
  0
LINE
  5
31E
100
AcDbEntity
  8
0
  6
CONTINUOUS
 62
          15
100
AcDbLine
 10
61.602565765381
 20
144.478698730469
 30
0.0
 11
61.602565765381
 21
144.478698730469
 31
0.0
  0
LINE
  5
31F
100
AcDbEntity
  8
0
  6
CONTINUOUS
 62
          15
100
AcDbLine
 10
62.29598236084
 20
143.785278320313
 30
0.0
 11
60.909141540527
 21
143.785278320313
 31
0.0
  0
LINE
  5
320
100
AcDbEntity
  8
0
  6
CONTINUOUS
 62
          15
100
AcDbLine
 10
63.682819366455
 20
144.131988525391
 30
0.0
 11
63.682819366455
 21
144.131988525391
 31
0.0
  0
LINE
  5
321
100
AcDbEntity
  8
0
  6
CONTINUOUS
 62
          15
100
AcDbLine
 10
63.682819366455
 20
144.131988525391
 30
0.0
 11
65.06965637207
 21
144.131988525391
 31
0.0
  0
LINE
  5
322
100
AcDbEntity
  8
0
  6
CONTINUOUS
 62
          15
100
AcDbLine
 10
65.06965637207
 20
144.131988525391
 30
0.0
 11
65.06965637207
 21
144.131988525391
 31
0.0
  0
LINE
  5
323
100
AcDbEntity
  8
0
  6
CONTINUOUS
 62
          15
100
AcDbLine
 10
65.06965637207
 20
144.131988525391
 30
0.0
 11
63.682819366455
 21
144.131988525391
 31
0.0
  0
LINE
  5
324
100
AcDbEntity
  8
0
  6
CONTINUOUS
 62
          15
100
AcDbLine
 10
64.376243591309
 20
143.785278320313
 30
0.0
 11
64.376243591309
 21
143.438568115234
 31
0.0
  0
LINE
  5
325
100
AcDbEntity
  8
0
  6
CONTINUOUS
 62
          15
100
AcDbLine
 10
64.376243591309
 20
143.785278320313
 30
0.0
 11
64.376243591309
 21
143.785278320313
 31
0.0
  0
LINE
  5
326
100
AcDbEntity
  8
0
  6
CONTINUOUS
 62
          15
100
AcDbLine
 10
64.376243591309
 20
143.438568115234
 30
0.0
 11
64.376243591309
 21
143.785278320313
 31
0.0
  0
LINE
  5
327
100
AcDbEntity
  8
0
  6
CONTINUOUS
 62
          15
100
AcDbLine
 10
64.376243591309
 20
143.438568115234
 30
0.0
 11
64.376243591309
 21
143.438568115234
 31
0.0
  0
LINE
  5
328
100
AcDbEntity
  8
0
  6
CONTINUOUS
 62
          15
100
AcDbLine
 10
64.376243591309
 20
144.131988525391
 30
0.0
 11
64.376243591309
 21
144.478698730469
 31
0.0
  0
LINE
  5
329
100
AcDbEntity
  8
0
  6
CONTINUOUS
 62
          15
100
AcDbLine
 10
64.376243591309
 20
144.131988525391
 30
0.0
 11
64.376243591309
 21
144.131988525391
 31
0.0
  0
LINE
  5
32A
100
AcDbEntity
  8
0
  6
CONTINUOUS
 62
          15
100
AcDbLine
 10
64.376243591309
 20
144.478698730469
 30
0.0
 11
64.376243591309
 21
144.131988525391
 31
0.0
  0
LINE
  5
32B
100
AcDbEntity
  8
0
  6
CONTINUOUS
 62
          15
100
AcDbLine
 10
64.376243591309
 20
144.478698730469
 30
0.0
 11
64.376243591309
 21
144.478698730469
 31
0.0
  0
LINE
  5
32C
100
AcDbEntity
  8
0
  6
CONTINUOUS
 62
          15
100
AcDbLine
 10
65.06965637207
 20
143.785278320313
 30
0.0
 11
63.682819366455
 21
143.785278320313
 31
0.0
  0
LINE
  5
32D
100
AcDbEntity
  8
0
  6
CONTINUOUS
 62
          15
100
AcDbLine
 10
33.865772247314
 20
144.894744873047
 30
0.0
 11
33.865772247314
 21
145.241455078125
 31
0.0
  0
LINE
  5
32E
100
AcDbEntity
  8
0
  6
CONTINUOUS
 62
          15
100
AcDbLine
 10
33.865772247314
 20
149.88737487793
 30
0.0
 11
33.865772247314
 21
149.540664672852
 31
0.0
  0
LINE
  5
32F
100
AcDbEntity
  8
0
  6
CONTINUOUS
 62
          15
100
AcDbLine
 10
34.559181213379
 20
145.241455078125
 30
0.0
 11
34.559181213379
 21
149.610015869141
 31
0.0
  0
LINE
  5
330
100
AcDbEntity
  8
0
  6
CONTINUOUS
 62
          15
100
AcDbLine
 10
34.559181213379
 20
145.241455078125
 30
0.0
 11
33.172344207764
 21
145.241455078125
 31
0.0
  0
LINE
  5
331
100
AcDbEntity
  8
0
  6
CONTINUOUS
 62
          15
100
AcDbLine
 10
33.172344207764
 20
149.610015869141
 30
0.0
 11
33.172344207764
 21
145.241455078125
 31
0.0
  0
LINE
  5
332
100
AcDbEntity
  8
0
  6
CONTINUOUS
 62
          15
100
AcDbLine
 10
33.172344207764
 20
149.610015869141
 30
0.0
 11
34.559181213379
 21
149.610015869141
 31
0.0
  0
LINE
  5
333
100
AcDbEntity
  8
0
  6
CONTINUOUS
 62
          15
100
AcDbLine
 10
25.544717788696
 20
144.686721801758
 30
0.0
 11
32.478912353516
 21
144.686721801758
 31
0.0
  0
LINE
  5
334
100
AcDbEntity
  8
0
  6
CONTINUOUS
 62
          15
100
AcDbLine
 10
25.544717788696
 20
144.686721801758
 30
0.0
 11
25.544717788696
 21
150.234085083008
 31
0.0
  0
LINE
  5
335
100
AcDbEntity
  8
0
  6
CONTINUOUS
 62
          15
100
AcDbLine
 10
32.478923797607
 20
150.234085083008
 30
0.0
 11
25.544717788696
 21
150.234085083008
 31
0.0
  0
LINE
  5
336
100
AcDbEntity
  8
0
  6
CONTINUOUS
 62
          15
100
AcDbLine
 10
32.478923797607
 20
150.234085083008
 30
0.0
 11
32.478923797607
 21
144.686721801758
 31
0.0
  0
LINE
  5
337
100
AcDbEntity
  8
0
  6
CONTINUOUS
 62
          15
100
AcDbLine
 10
25.544717788696
 20
146.766983032227
 30
0.0
 11
26.238128662109
 21
146.766983032227
 31
0.0
  0
LINE
  5
338
100
AcDbEntity
  8
0
  6
CONTINUOUS
 62
          15
100
AcDbLine
 10
25.544717788696
 20
146.766983032227
 30
0.0
 11
25.544717788696
 21
148.153823852539
 31
0.0
  0
LINE
  5
339
100
AcDbEntity
  8
0
  6
CONTINUOUS
 62
          15
100
AcDbLine
 10
26.238128662109
 20
148.153823852539
 30
0.0
 11
25.544717788696
 21
148.153823852539
 31
0.0
  0
LINE
  5
33A
100
AcDbEntity
  8
0
  6
CONTINUOUS
 62
          15
100
AcDbLine
 10
26.238128662109
 20
148.153823852539
 30
0.0
 11
26.238128662109
 21
146.766983032227
 31
0.0
  0
LINE
  5
33B
100
AcDbEntity
  8
0
  6
CONTINUOUS
 62
          15
100
AcDbLine
 10
24.365907669067
 20
143.022521972656
 30
0.0
 11
24.712608337402
 21
143.022521972656
 31
0.0
  0
LINE
  5
33C
100
AcDbEntity
  8
0
  6
CONTINUOUS
 62
          15
100
AcDbLine
 10
29.358528137207
 20
143.022521972656
 30
0.0
 11
29.011817932129
 21
143.022521972656
 31
0.0
  0
LINE
  5
33D
100
AcDbEntity
  8
0
  6
CONTINUOUS
 62
          15
100
AcDbLine
 10
24.712608337402
 20
142.3291015625
 30
0.0
 11
29.081165313721
 21
142.3291015625
 31
0.0
  0
LINE
  5
33E
100
AcDbEntity
  8
0
  6
CONTINUOUS
 62
          15
100
AcDbLine
 10
24.712608337402
 20
142.3291015625
 30
0.0
 11
24.712608337402
 21
143.715942382813
 31
0.0
  0
LINE
  5
33F
100
AcDbEntity
  8
0
  6
CONTINUOUS
 62
          15
100
AcDbLine
 10
29.081165313721
 20
143.715942382813
 30
0.0
 11
24.712608337402
 21
143.715942382813
 31
0.0
  0
LINE
  5
340
100
AcDbEntity
  8
0
  6
CONTINUOUS
 62
          15
100
AcDbLine
 10
29.081165313721
 20
143.715942382813
 30
0.0
 11
29.081165313721
 21
142.3291015625
 31
0.0
  0
LINE
  5
341
100
AcDbEntity
  8
0
  6
CONTINUOUS
 62
          15
100
AcDbLine
 10
35.529972076416
 20
150.053802490234
 30
0.0
 11
35.529972076416
 21
149.707092285156
 31
0.0
  0
LINE
  5
342
100
AcDbEntity
  8
0
  6
CONTINUOUS
 62
          15
100
AcDbLine
 10
35.529972076416
 20
145.033432006836
 30
0.0
 11
35.529972076416
 21
145.380142211914
 31
0.0
  0
LINE
  5
343
100
AcDbEntity
  8
0
  6
CONTINUOUS
 62
          15
100
AcDbLine
 10
34.836544036865
 20
149.707092285156
 30
0.0
 11
34.836544036865
 21
145.366287231445
 31
0.0
  0
LINE
  5
344
100
AcDbEntity
  8
0
  6
CONTINUOUS
 62
          15
100
AcDbLine
 10
34.836544036865
 20
149.707092285156
 30
0.0
 11
36.223388671875
 21
149.707092285156
 31
0.0
  0
LINE
  5
345
100
AcDbEntity
  8
0
  6
CONTINUOUS
 62
          15
100
AcDbLine
 10
36.223388671875
 20
145.366287231445
 30
0.0
 11
36.223388671875
 21
149.707092285156
 31
0.0
  0
LINE
  5
346
100
AcDbEntity
  8
0
  6
CONTINUOUS
 62
          15
100
AcDbLine
 10
36.223388671875
 20
145.366287231445
 30
0.0
 11
34.836544036865
 21
145.366287231445
 31
0.0
  0
LINE
  5
347
100
AcDbEntity
  8
0
  6
CONTINUOUS
 62
          15
100
AcDbLine
 10
31.854848861694
 20
143.022521972656
 30
0.0
 11
32.201560974121
 21
143.022521972656
 31
0.0
  0
LINE
  5
348
100
AcDbEntity
  8
0
  6
CONTINUOUS
 62
          15
100
AcDbLine
 10
36.847469329834
 20
143.022521972656
 30
0.0
 11
36.500762939453
 21
143.022521972656
 31
0.0
  0
LINE
  5
349
100
AcDbEntity
  8
0
  6
CONTINUOUS
 62
          15
100
AcDbLine
 10
32.201560974121
 20
142.3291015625
 30
0.0
 11
36.570106506348
 21
142.3291015625
 31
0.0
  0
LINE
  5
34A
100
AcDbEntity
  8
0
  6
CONTINUOUS
 62
          15
100
AcDbLine
 10
32.201560974121
 20
142.3291015625
 30
0.0
 11
32.201560974121
 21
143.715942382813
 31
0.0
  0
LINE
  5
34B
100
AcDbEntity
  8
0
  6
CONTINUOUS
 62
          15
100
AcDbLine
 10
36.570106506348
 20
143.715942382813
 30
0.0
 11
32.201560974121
 21
143.715942382813
 31
0.0
  0
LINE
  5
34C
100
AcDbEntity
  8
0
  6
CONTINUOUS
 62
          15
100
AcDbLine
 10
36.570106506348
 20
143.715942382813
 30
0.0
 11
36.570106506348
 21
142.3291015625
 31
0.0
  0
CIRCLE
  5
34D
100
AcDbEntity
  8
0
  6
CONTINUOUS
 62
          15
100
AcDbCircle
 10
22.563014984131
 20
152.175659179688
 30
0.0
 40
1.095603585243
  0
LINE
  5
34E
100
AcDbEntity
  8
0
  6
CONTINUOUS
 62
          15
100
AcDbLine
 10
38.581016540527
 20
154.671981811523
 30
0.0
 11
46.763374328613
 21
154.671981811523
 31
0.0
  0
LINE
  5
34F
100
AcDbEntity
  8
0
  6
CONTINUOUS
 62
          15
100
AcDbLine
 10
46.763374328613
 20
154.671981811523
 30
0.0
 11
46.763374328613
 21
149.651611328125
 31
0.0
  0
LINE
  5
350
100
AcDbEntity
  8
0
  6
CONTINUOUS
 62
          15
100
AcDbLine
 10
46.763374328613
 20
152.245010375977
 30
0.0
 11
38.581016540527
 21
152.245010375977
 31
0.0
  0
TEXT
  5
351
100
AcDbEntity
  8
0
  6
CONTINUOUS
 62
          15
100
AcDbText
 10
39.329914093018
 20
150.45597422123
 30
0.0
 40
1.331366300583
  1
1
 41
1.000000089539
  7
TXT
100
AcDbText
  0
TEXT
  5
352
100
AcDbEntity
  8
0
  6
CONTINUOUS
 62
          15
100
AcDbText
 10
41.964908599854
 20
150.45597422123
 30
0.0
 40
1.331366300583
  1
2
 41
1.000000089539
  7
TXT
100
AcDbText
  0
TEXT
  5
353
100
AcDbEntity
  8
0
  6
CONTINUOUS
 62
          15
100
AcDbText
 10
69.507545471191
 20
151.482235446572
 30
0.0
 40
1.081735372543
  1
FIRST
 41
1.055555365763
  7
TXT
100
AcDbText
  0
TEXT
  5
354
100
AcDbEntity
  8
0
  6
CONTINUOUS
 62
          15
100
AcDbText
 10
68.398078918457
 20
149.818035617471
 30
0.0
 40
1.081735372543
  1
CHANNEL
 41
1.037036846224
  7
TXT
100
AcDbText
  0
TEXT
  5
355
100
AcDbEntity
  8
0
  6
CONTINUOUS
 62
          15
100
AcDbText
 10
44.683113098145
 20
150.372768044472
 30
0.0
 40
1.331366300583
  1
S
 41
1.000000089539
  7
TXT
100
AcDbText
  0
LINE
  5
356
100
AcDbEntity
  8
0
  6
CONTINUOUS
 62
          15
100
AcDbLine
 10
39.383644104004
 20
144.079040527344
 30
0.0
 11
40.118087768555
 21
143.344604492188
 31
0.0
  0
LINE
  5
357
100
AcDbEntity
  8
0
  6
CONTINUOUS
 62
          15
100
AcDbLine
 10
40.256309509277
 20
146.148223876953
 30
0.0
 11
39.245403289795
 21
146.148223876953
 31
0.0
  0
LINE
  5
358
100
AcDbEntity
  8
0
  6
CONTINUOUS
 62
          15
100
AcDbLine
 10
39.245403289795
 20
146.148223876953
 30
0.0
 11
39.245403289795
 21
147.941040039063
 31
0.0
  0
LINE
  5
359
100
AcDbEntity
  8
0
  6
CONTINUOUS
 62
          15
100
AcDbLine
 10
39.245403289795
 20
147.941040039063
 30
0.0
 11
40.256309509277
 21
147.941040039063
 31
0.0
  0
LINE
  5
35A
100
AcDbEntity
  8
0
  6
CONTINUOUS
 62
          15
100
AcDbLine
 10
40.256309509277
 20
147.941040039063
 30
0.0
 11
40.256309509277
 21
146.148223876953
 31
0.0
  0
LINE
  5
35B
100
AcDbEntity
  8
0
  6
CONTINUOUS
 62
          15
100
AcDbLine
 10
40.256309509277
 20
147.339340209961
 30
0.0
 11
39.245403289795
 21
147.339340209961
 31
0.0
  0
ELLIPSE
  5
35C
100
AcDbEntity
  8
0
  6
CONTINUOUS
 62
          15
100
AcDbEllipse
 10
39.750858306885
 20
143.711837768555
 30
0.0
 11
-0.7355166077613746
 21
0.0000001110599179
 31
0.0
210
0.0
220
0.0
230
1.0
 40
0.624739291281
 41
0.0
 42
6.2831853071795862
  0
LINE
  5
35D
100
AcDbEntity
  8
0
  6
CONTINUOUS
 62
          15
100
AcDbLine
 10
42.112743377686
 20
144.079040527344
 30
0.0
 11
42.847187042236
 21
143.344604492188
 31
0.0
  0
LINE
  5
35E
100
AcDbEntity
  8
0
  6
CONTINUOUS
 62
          15
100
AcDbLine
 10
42.985408782959
 20
146.148223876953
 30
0.0
 11
41.974506378174
 21
146.148223876953
 31
0.0
  0
LINE
  5
35F
100
AcDbEntity
  8
0
  6
CONTINUOUS
 62
          15
100
AcDbLine
 10
41.974506378174
 20
146.148223876953
 30
0.0
 11
41.974506378174
 21
147.941040039063
 31
0.0
  0
LINE
  5
360
100
AcDbEntity
  8
0
  6
CONTINUOUS
 62
          15
100
AcDbLine
 10
41.974506378174
 20
147.941040039063
 30
0.0
 11
42.985408782959
 21
147.941040039063
 31
0.0
  0
LINE
  5
361
100
AcDbEntity
  8
0
  6
CONTINUOUS
 62
          15
100
AcDbLine
 10
42.985408782959
 20
147.941040039063
 30
0.0
 11
42.985408782959
 21
146.148223876953
 31
0.0
  0
LINE
  5
362
100
AcDbEntity
  8
0
  6
CONTINUOUS
 62
          15
100
AcDbLine
 10
42.985408782959
 20
147.339340209961
 30
0.0
 11
41.974506378174
 21
147.339340209961
 31
0.0
  0
ELLIPSE
  5
363
100
AcDbEntity
  8
0
  6
CONTINUOUS
 62
          15
100
AcDbEllipse
 10
42.479957580566
 20
143.711837768555
 30
0.0
 11
-0.7355166077613746
 21
0.0000001110599179
 31
0.0
210
0.0
220
0.0
230
1.0
 40
0.624739291281
 41
0.0
 42
6.2831853071795862
  0
LINE
  5
364
100
AcDbEntity
  8
0
  6
CONTINUOUS
 62
          15
100
AcDbLine
 10
44.775279998779
 20
144.079040527344
 30
0.0
 11
45.50972366333
 21
143.344604492188
 31
0.0
  0
LINE
  5
365
100
AcDbEntity
  8
0
  6
CONTINUOUS
 62
          15
100
AcDbLine
 10
45.647941589355
 20
146.148223876953
 30
0.0
 11
44.63703918457
 21
146.148223876953
 31
0.0
  0
LINE
  5
366
100
AcDbEntity
  8
0
  6
CONTINUOUS
 62
          15
100
AcDbLine
 10
44.63703918457
 20
146.148223876953
 30
0.0
 11
44.63703918457
 21
147.941040039063
 31
0.0
  0
LINE
  5
367
100
AcDbEntity
  8
0
  6
CONTINUOUS
 62
          15
100
AcDbLine
 10
44.63703918457
 20
147.941040039063
 30
0.0
 11
45.647941589355
 21
147.941040039063
 31
0.0
  0
LINE
  5
368
100
AcDbEntity
  8
0
  6
CONTINUOUS
 62
          15
100
AcDbLine
 10
45.647941589355
 20
147.941040039063
 30
0.0
 11
45.647941589355
 21
146.148223876953
 31
0.0
  0
LINE
  5
369
100
AcDbEntity
  8
0
  6
CONTINUOUS
 62
          15
100
AcDbLine
 10
45.647941589355
 20
147.339340209961
 30
0.0
 11
44.63703918457
 21
147.339340209961
 31
0.0
  0
ELLIPSE
  5
36A
100
AcDbEntity
  8
0
  6
CONTINUOUS
 62
          15
100
AcDbEllipse
 10
45.142490386963
 20
143.711837768555
 30
0.0
 11
-0.7355166077613746
 21
0.0000001110599179
 31
0.0
210
0.0
220
0.0
230
1.0
 40
0.624739291281
 41
0.0
 42
6.2831853071795862
  0
LINE
  5
36B
100
AcDbEntity
  8
0
  6
CONTINUOUS
 62
          15
100
AcDbLine
 10
43.80685043335
 20
149.651611328125
 30
0.0
 11
43.80685043335
 21
141.496994018555
 31
0.0
  0
LINE
  5
36C
100
AcDbEntity
  8
0
  6
CONTINUOUS
 62
          15
100
AcDbLine
 10
41.077751159668
 20
149.651611328125
 30
0.0
 11
41.077751159668
 21
141.496994018555
 31
0.0
  0
LINE
  5
36D
100
AcDbEntity
  8
0
  6
CONTINUOUS
 62
          15
100
AcDbLine
 10
38.581016540527
 20
144.826553344727
 30
0.0
 11
46.735637664795
 21
144.826553344727
 31
0.0
  0
TEXT
  5
36E
100
AcDbEntity
  8
0
  6
CONTINUOUS
 62
          15
100
AcDbText
 10
38.86950302124
 20
152.935665622354
 30
0.0
 40
1.081735372543
  1
SIGNALS
 41
1.037036846224
  7
TXT
100
AcDbText
  0
CIRCLE
  5
36F
100
AcDbEntity
  8
0
  6
CONTINUOUS
 62
          15
100
AcDbCircle
 10
72.004463195801
 20
145.941268920898
 30
0.0
 40
2.599999904633
  0
LINE
  5
370
100
AcDbEntity
  8
0
  6
CONTINUOUS
 62
          15
100
AcDbLine
 10
69.435699462891
 20
146.330810546875
 30
0.0
 11
74.572898864746
 21
146.330810546875
 31
0.0
  0
LINE
  5
371
100
AcDbEntity
  8
0
  6
CONTINUOUS
 62
          15
100
AcDbLine
 10
74.572898864746
 20
146.330810546875
 30
0.0
 11
74.572898864746
 21
145.848098754883
 31
0.0
  0
LINE
  5
372
100
AcDbEntity
  8
0
  6
CONTINUOUS
 62
          15
100
AcDbLine
 10
74.572898864746
 20
145.848098754883
 30
0.0
 11
69.435699462891
 21
145.848098754883
 31
0.0
  0
LINE
  5
373
100
AcDbEntity
  8
0
  6
CONTINUOUS
 62
          15
100
AcDbLine
 10
69.435699462891
 20
145.848098754883
 30
0.0
 11
69.435699462891
 21
146.330810546875
 31
0.0
  0
LINE
  5
374
100
AcDbEntity
  8
0
  6
CONTINUOUS
 62
          15
100
AcDbLine
 10
72.004302978516
 20
145.848098754883
 30
0.0
 11
70.386543273926
 21
143.905990600586
 31
0.0
  0
LINE
  5
375
100
AcDbEntity
  8
0
  6
CONTINUOUS
 62
          15
100
AcDbLine
 10
72.004302978516
 20
145.848098754883
 30
0.0
 11
72.004463195801
 21
145.941268920898
 31
0.0
  0
LINE
  5
376
100
AcDbEntity
  8
0
  6
CONTINUOUS
 62
          15
100
AcDbLine
 10
72.078262329102
 20
145.848098754883
 30
0.0
 11
73.618995666504
 21
143.903305053711
 31
0.0
  0
LINE
  5
377
100
AcDbEntity
  8
0
  6
CONTINUOUS
 62
          15
100
AcDbLine
 10
39.750858306885
 20
157.595932006836
 30
0.0
 11
39.750858306885
 21
183.125885009766
 31
0.0
  0
LINE
  5
378
100
AcDbEntity
  8
0
  6
CONTINUOUS
 62
          15
100
AcDbLine
 10
39.750858306885
 20
147.339340209961
 30
0.0
 11
39.750858306885
 21
157.595932006836
 31
0.0
  0
LINE
  5
379
100
AcDbEntity
  8
0
  6
CONTINUOUS
 62
          15
100
AcDbLine
 10
42.479957580566
 20
157.595932006836
 30
0.0
 11
42.479957580566
 21
180.68962097168
 31
0.0
  0
LINE
  5
37A
100
AcDbEntity
  8
0
  6
CONTINUOUS
 62
          15
100
AcDbLine
 10
42.479957580566
 20
147.339340209961
 30
0.0
 11
42.479957580566
 21
157.595932006836
 31
0.0
  0
LINE
  5
37B
100
AcDbEntity
  8
0
  6
CONTINUOUS
 62
          15
100
AcDbLine
 10
45.142490386963
 20
157.595932006836
 30
0.0
 11
45.142490386963
 21
178.253356933594
 31
0.0
  0
LINE
  5
37C
100
AcDbEntity
  8
0
  6
CONTINUOUS
 62
          15
100
AcDbLine
 10
45.142490386963
 20
147.339340209961
 30
0.0
 11
45.142490386963
 21
157.595932006836
 31
0.0
  0
LINE
  5
37D
100
AcDbEntity
  8
0
  6
CONTINUOUS
 62
          15
100
AcDbLine
 10
20.487213134766
 20
155.62060546875
 30
0.0
 11
117.06761932373
 21
155.688049316406
 31
0.0
  0
LINE
  5
37E
100
AcDbEntity
  8
0
  6
CONTINUOUS
 62
          15
100
AcDbLine
 10
39.849830627441
 20
82.856819152832
 30
0.0
 11
39.849830627441
 21
93.857215881348
 31
0.0
  0
LINE
  5
37F
100
AcDbEntity
  8
0
  6
CONTINUOUS
 62
          15
100
AcDbLine
 10
42.719585418701
 20
82.856819152832
 30
0.0
 11
42.719585418701
 21
93.857215881348
 31
0.0
  0
LINE
  5
380
100
AcDbEntity
  8
0
  6
CONTINUOUS
 62
          15
100
AcDbLine
 10
45.629207611084
 20
82.856819152832
 30
0.0
 11
45.629207611084
 21
93.857215881348
 31
0.0
  0
LINE
  5
381
100
AcDbEntity
  8
0
  6
CONTINUOUS
 62
          15
100
AcDbLine
 10
48.578681945801
 20
82.856819152832
 30
0.0
 11
48.578681945801
 21
93.857215881348
 31
0.0
  0
LINE
  5
382
100
AcDbEntity
  8
0
  6
CONTINUOUS
 62
          15
100
AcDbLine
 10
51.289005279541
 20
82.856819152832
 30
0.0
 11
51.289005279541
 21
93.857215881348
 31
0.0
  0
LINE
  5
383
100
AcDbEntity
  8
0
  6
CONTINUOUS
 62
          15
100
AcDbLine
 10
53.560901641846
 20
82.856819152832
 30
0.0
 11
53.560901641846
 21
93.857215881348
 31
0.0
  0
LINE
  5
384
100
AcDbEntity
  8
0
  6
CONTINUOUS
 62
          15
100
AcDbLine
 10
56.430656433105
 20
82.856819152832
 30
0.0
 11
56.430656433105
 21
93.857215881348
 31
0.0
  0
LINE
  5
385
100
AcDbEntity
  8
0
  6
CONTINUOUS
 62
          15
100
AcDbLine
 10
59.340278625488
 20
82.856819152832
 30
0.0
 11
59.340278625488
 21
93.857215881348
 31
0.0
  0
LINE
  5
386
100
AcDbEntity
  8
0
  6
CONTINUOUS
 62
          15
100
AcDbLine
 10
62.289752960205
 20
82.856819152832
 30
0.0
 11
62.289752960205
 21
93.857215881348
 31
0.0
  0
LINE
  5
387
100
AcDbEntity
  8
0
  6
CONTINUOUS
 62
          15
100
AcDbLine
 10
65.000076293945
 20
82.856819152832
 30
0.0
 11
65.000076293945
 21
93.857215881348
 31
0.0
  0
LINE
  5
388
100
AcDbEntity
  8
0
  6
CONTINUOUS
 62
          15
100
AcDbLine
 10
67.192245483398
 20
82.856819152832
 30
0.0
 11
67.192245483398
 21
93.857215881348
 31
0.0
  0
LINE
  5
389
100
AcDbEntity
  8
0
  6
CONTINUOUS
 62
          15
100
AcDbLine
 10
70.062004089355
 20
82.856819152832
 30
0.0
 11
70.062004089355
 21
93.857215881348
 31
0.0
  0
LINE
  5
38A
100
AcDbEntity
  8
0
  6
CONTINUOUS
 62
          15
100
AcDbLine
 10
72.971626281738
 20
82.856819152832
 30
0.0
 11
72.971626281738
 21
93.857215881348
 31
0.0
  0
LINE
  5
38B
100
AcDbEntity
  8
0
  6
CONTINUOUS
 62
          15
100
AcDbLine
 10
75.921096801758
 20
82.856819152832
 30
0.0
 11
75.921096801758
 21
93.857215881348
 31
0.0
  0
LINE
  5
38C
100
AcDbEntity
  8
0
  6
CONTINUOUS
 62
          15
100
AcDbLine
 10
78.631423950195
 20
82.856819152832
 30
0.0
 11
78.631423950195
 21
93.857215881348
 31
0.0
  0
LINE
  5
38D
100
AcDbEntity
  8
0
  6
CONTINUOUS
 62
          15
100
AcDbLine
 10
39.750858306885
 20
183.125885009766
 30
0.0
 11
155.720596313477
 21
183.125885009766
 31
0.0
  0
LINE
  5
38E
100
AcDbEntity
  8
0
  6
CONTINUOUS
 62
          15
100
AcDbLine
 10
42.479957580566
 20
180.68962097168
 30
0.0
 11
153.555923461914
 21
180.68962097168
 31
0.0
  0
LINE
  5
38F
100
AcDbEntity
  8
0
  6
CONTINUOUS
 62
          15
100
AcDbLine
 10
45.142490386963
 20
178.253356933594
 30
0.0
 11
151.391265869141
 21
178.253356933594
 31
0.0
  0
LINE
  5
390
100
AcDbEntity
  8
0
  6
CONTINUOUS
 62
          15
100
AcDbLine
 10
155.720596313477
 20
101.450233459473
 30
0.0
 11
155.720596313477
 21
183.125885009766
 31
0.0
  0
LINE
  5
391
100
AcDbEntity
  8
0
  6
CONTINUOUS
 62
          15
100
AcDbLine
 10
153.555923461914
 20
99.790031433105
 30
0.0
 11
153.555923461914
 21
180.68962097168
 31
0.0
  0
LINE
  5
392
100
AcDbEntity
  8
0
  6
CONTINUOUS
 62
          15
100
AcDbLine
 10
151.391265869141
 20
98.129829406738
 30
0.0
 11
151.391265869141
 21
178.253356933594
 31
0.0
  0
LINE
  5
393
100
AcDbEntity
  8
0
  6
CONTINUOUS
 62
          15
100
AcDbLine
 10
194.324249267578
 20
103.406265258789
 30
0.0
 11
194.324249267578
 21
112.538131713867
 31
0.0
  0
LINE
  5
394
100
AcDbEntity
  8
0
  6
CONTINUOUS
 62
          15
100
AcDbLine
 10
194.324249267578
 20
101.450233459473
 30
0.0
 11
194.324249267578
 21
103.406265258789
 31
0.0
  0
LINE
  5
395
100
AcDbEntity
  8
0
  6
CONTINUOUS
 62
          15
100
AcDbLine
 10
199.277435302734
 20
103.406265258789
 30
0.0
 11
199.277435302734
 21
112.538841247559
 31
0.0
  0
LINE
  5
396
100
AcDbEntity
  8
0
  6
CONTINUOUS
 62
          15
100
AcDbLine
 10
199.277435302734
 20
99.790031433105
 30
0.0
 11
199.277435302734
 21
103.406265258789
 31
0.0
  0
LINE
  5
397
100
AcDbEntity
  8
0
  6
CONTINUOUS
 62
          15
100
AcDbLine
 10
204.178985595703
 20
89.62816619873
 30
0.0
 11
204.178985595703
 21
102.280334472656
 31
0.0
  0
LINE
  5
398
100
AcDbEntity
  8
0
  6
CONTINUOUS
 62
          15
100
AcDbLine
 10
155.720596313477
 20
101.450233459473
 30
0.0
 11
194.324249267578
 21
101.450233459473
 31
0.0
  0
LINE
  5
399
100
AcDbEntity
  8
0
  6
CONTINUOUS
 62
          15
100
AcDbLine
 10
153.555923461914
 20
99.790031433105
 30
0.0
 11
199.277435302734
 21
99.790031433105
 31
0.0
  0
LINE
  5
39A
100
AcDbEntity
  8
0
  6
CONTINUOUS
 62
          15
100
AcDbLine
 10
151.391265869141
 20
98.129829406738
 30
0.0
 11
204.178985595703
 21
98.129829406738
 31
0.0
  0
LINE
  5
39B
100
AcDbEntity
  8
0
  6
CONTINUOUS
 62
          15
100
AcDbLine
 10
204.178985595703
 20
102.280334472656
 30
0.0
 11
207.853607177734
 21
102.280334472656
 31
0.0
  0
LINE
  5
39C
100
AcDbEntity
  8
0
  6
CONTINUOUS
 62
          15
100
AcDbLine
 10
206.449172973633
 20
99.766777038574
 30
0.0
 11
209.582138061523
 21
99.766777038574
 31
0.0
  0
LINE
  5
39D
100
AcDbEntity
  8
0
  6
CONTINUOUS
 62
          15
100
AcDbLine
 10
206.91731262207
 20
99.154846191406
 30
0.0
 11
209.005966186523
 21
99.154846191406
 31
0.0
  0
LINE
  5
39E
100
AcDbEntity
  8
0
  6
CONTINUOUS
 62
          15
100
AcDbLine
 10
207.385467529297
 20
98.542915344238
 30
0.0
 11
208.429779052734
 21
98.542915344238
 31
0.0
  0
LINE
  5
39F
100
AcDbEntity
  8
0
  6
CONTINUOUS
 62
          15
100
AcDbLine
 10
207.853607177734
 20
102.280334472656
 30
0.0
 11
207.853607177734
 21
99.766777038574
 31
0.0
  0
LINE
  5
3A0
100
AcDbEntity
  8
0
  6
CONTINUOUS
 62
          15
100
AcDbLine
 10
196.596893310547
 20
103.40697479248
 30
0.0
 11
196.596893310547
 21
112.538841247559
 31
0.0
  0
LINE
  5
3A1
100
AcDbEntity
  8
0
  6
CONTINUOUS
 62
          15
100
AcDbLine
 10
196.596893310547
 20
89.62816619873
 30
0.0
 11
196.596893310547
 21
103.40697479248
 31
0.0
  0
LINE
  5
3A2
100
AcDbEntity
  8
0
  6
CONTINUOUS
 62
          15
100
AcDbLine
 10
201.550079345703
 20
103.40697479248
 30
0.0
 11
201.550079345703
 21
112.53955078125
 31
0.0
  0
LINE
  5
3A3
100
AcDbEntity
  8
0
  6
CONTINUOUS
 62
          15
100
AcDbLine
 10
201.550079345703
 20
89.62816619873
 30
0.0
 11
201.550079345703
 21
103.40697479248
 31
0.0
  0
TEXT
  5
3A4
100
AcDbEntity
  8
0
  6
CONTINUOUS
 62
          15
100
AcDbText
 10
186.371887207031
 20
86.719516009092
 30
0.0
 40
1.5
  1
 TO OTHER SDX-15
 41
1.066666682561
  7
GOTHICI
100
AcDbText
  0
TEXT
  5
3A5
100
AcDbEntity
  8
0
  6
CONTINUOUS
 62
          15
100
AcDbText
 10
186.371887207031
 20
84.319515913725
 30
0.0
 40
1.5
  1
ALARMS & EQUIPMENT
 41
1.066666682561
  7
GOTHICI
100
AcDbText
  0
LINE
  5
3A6
100
AcDbEntity
  8
0
  6
CONTINUOUS
 62
          15
100
AcDbLine
 10
39.849830627441
 20
49.599685668945
 30
0.0
 11
39.849830627441
 21
82.856819152832
 31
0.0
  0
LINE
  5
3A7
100
AcDbEntity
  8
0
  6
CONTINUOUS
 62
          15
100
AcDbLine
 10
42.719585418701
 20
51.099685668945
 30
0.0
 11
42.719585418701
 21
82.856819152832
 31
0.0
  0
LINE
  5
3A8
100
AcDbEntity
  8
0
  6
CONTINUOUS
 62
          15
100
AcDbLine
 10
45.629207611084
 20
52.599685668945
 30
0.0
 11
45.629207611084
 21
82.856819152832
 31
0.0
  0
LINE
  5
3A9
100
AcDbEntity
  8
0
  6
CONTINUOUS
 62
          15
100
AcDbLine
 10
48.578681945801
 20
54.099685668945
 30
0.0
 11
48.578681945801
 21
82.856819152832
 31
0.0
  0
LINE
  5
3AA
100
AcDbEntity
  8
0
  6
CONTINUOUS
 62
          15
100
AcDbLine
 10
51.289005279541
 20
55.599685668945
 30
0.0
 11
51.289005279541
 21
82.856819152832
 31
0.0
  0
LINE
  5
3AB
100
AcDbEntity
  8
0
  6
CONTINUOUS
 62
          15
100
AcDbLine
 10
53.560901641846
 20
57.099685668945
 30
0.0
 11
53.560901641846
 21
82.856819152832
 31
0.0
  0
LINE
  5
3AC
100
AcDbEntity
  8
0
  6
CONTINUOUS
 62
          15
100
AcDbLine
 10
56.430656433105
 20
58.599685668945
 30
0.0
 11
56.430656433105
 21
82.856819152832
 31
0.0
  0
LINE
  5
3AD
100
AcDbEntity
  8
0
  6
CONTINUOUS
 62
          15
100
AcDbLine
 10
59.340278625488
 20
60.099685668945
 30
0.0
 11
59.340278625488
 21
82.856819152832
 31
0.0
  0
LINE
  5
3AE
100
AcDbEntity
  8
0
  6
CONTINUOUS
 62
          15
100
AcDbLine
 10
62.289752960205
 20
61.599685668945
 30
0.0
 11
62.289752960205
 21
82.856819152832
 31
0.0
  0
LINE
  5
3AF
100
AcDbEntity
  8
0
  6
CONTINUOUS
 62
          15
100
AcDbLine
 10
65.000076293945
 20
63.099685668945
 30
0.0
 11
65.000076293945
 21
82.856819152832
 31
0.0
  0
LINE
  5
3B0
100
AcDbEntity
  8
0
  6
CONTINUOUS
 62
          15
100
AcDbLine
 10
67.192245483398
 20
64.599685668945
 30
0.0
 11
67.192245483398
 21
82.856819152832
 31
0.0
  0
LINE
  5
3B1
100
AcDbEntity
  8
0
  6
CONTINUOUS
 62
          15
100
AcDbLine
 10
70.06201171875
 20
66.099685668945
 30
0.0
 11
70.06201171875
 21
82.856819152832
 31
0.0
  0
LINE
  5
3B2
100
AcDbEntity
  8
0
  6
CONTINUOUS
 62
          15
100
AcDbLine
 10
72.971633911133
 20
67.599685668945
 30
0.0
 11
72.971633911133
 21
82.856819152832
 31
0.0
  0
LINE
  5
3B3
100
AcDbEntity
  8
0
  6
CONTINUOUS
 62
          15
100
AcDbLine
 10
75.921096801758
 20
69.099685668945
 30
0.0
 11
75.921096801758
 21
82.856819152832
 31
0.0
  0
LINE
  5
3B4
100
AcDbEntity
  8
0
  6
CONTINUOUS
 62
          15
100
AcDbLine
 10
78.631423950195
 20
70.599685668945
 30
0.0
 11
78.631423950195
 21
82.856819152832
 31
0.0
  0
TEXT
  5
3B5
100
AcDbEntity
  8
0
  6
CONTINUOUS
 62
          15
100
AcDbText
 10
25.337124317884
 20
36.924571969985
 30
0.0
 40
1.600000023842
  1
COMMON
 50
-90.000002504478
 41
0.968749993015
  7
GOTHICI
100
AcDbText
  0
TEXT
  5
3B6
100
AcDbEntity
  8
0
  6
CONTINUOUS
 62
          15
100
AcDbText
 10
29.337124317884
 20
36.924571969985
 30
0.0
 40
1.600000023842
  1
1st ALARM CONDITION
 50
-90.000002504478
 41
0.968749993015
  7
GOTHICI
100
AcDbText
  0
TEXT
  5
3B7
100
AcDbEntity
  8
0
  6
CONTINUOUS
 62
          15
100
AcDbText
 10
33.337124317884
 20
36.924571969985
 30
0.0
 40
1.600000023842
  1
2nd ALARM CONDITION
 50
-90.000002504478
 41
0.968749993015
  7
GOTHICI
100
AcDbText
  0
TEXT
  5
3B8
100
AcDbEntity
  8
0
  6
CONTINUOUS
 62
          15
100
AcDbText
 10
37.337124317884
 20
36.924571969985
 30
0.0
 40
1.600000023842
  1
3rd ALARM CONDITION
 50
-90.000002504478
 41
0.968749993015
  7
GOTHICI
100
AcDbText
  0
TEXT
  5
3B9
100
AcDbEntity
  8
0
  6
CONTINUOUS
 62
          15
100
AcDbText
 10
41.337124317884
 20
36.924571969985
 30
0.0
 40
1.600000023842
  1
4th ALARM CONDITION
 50
-90.000002504478
 41
0.968749993015
  7
GOTHICI
100
AcDbText
  0
TEXT
  5
3BA
100
AcDbEntity
  8
0
  6
CONTINUOUS
 62
          15
100
AcDbText
 10
49.337124317884
 20
36.924571969985
 30
0.0
 40
1.600000023842
  1
COMMON
 50
-90.000002504478
 41
0.968749993015
  7
GOTHICI
100
AcDbText
  0
TEXT
  5
3BB
100
AcDbEntity
  8
0
  6
CONTINUOUS
 62
          15
100
AcDbText
 10
53.337124317884
 20
36.924571969985
 30
0.0
 40
1.600000023842
  1
1st ALARM CONDITION
 50
-90.000002504478
 41
0.968749993015
  7
GOTHICI
100
AcDbText
  0
TEXT
  5
3BC
100
AcDbEntity
  8
0
  6
CONTINUOUS
 62
          15
100
AcDbText
 10
57.337124317884
 20
36.924571969985
 30
0.0
 40
1.600000023842
  1
2nd ALARM CONDITION
 50
-90.000002504478
 41
0.968749993015
  7
GOTHICI
100
AcDbText
  0
TEXT
  5
3BD
100
AcDbEntity
  8
0
  6
CONTINUOUS
 62
          15
100
AcDbText
 10
61.337124317884
 20
36.924571969985
 30
0.0
 40
1.600000023842
  1
3rd ALARM CONDITION
 50
-90.000002504478
 41
0.968749993015
  7
GOTHICI
100
AcDbText
  0
TEXT
  5
3BE
100
AcDbEntity
  8
0
  6
CONTINUOUS
 62
          15
100
AcDbText
 10
65.337124317884
 20
36.924571969985
 30
0.0
 40
1.600000023842
  1
4th ALARM CONDITION
 50
-90.000002504478
 41
0.968749993015
  7
GOTHICI
100
AcDbText
  0
TEXT
  5
3BF
100
AcDbEntity
  8
0
  6
CONTINUOUS
 62
          15
100
AcDbText
 10
73.337124317884
 20
36.924571969985
 30
0.0
 40
1.600000023842
  1
COMMON
 50
-90.000002504478
 41
0.968749993015
  7
GOTHICI
100
AcDbText
  0
TEXT
  5
3C0
100
AcDbEntity
  8
0
  6
CONTINUOUS
 62
          15
100
AcDbText
 10
77.337124317884
 20
36.924571969985
 30
0.0
 40
1.600000023842
  1
1st ALARM CONDITION
 50
-90.000002504478
 41
0.968749993015
  7
GOTHICI
100
AcDbText
  0
TEXT
  5
3C1
100
AcDbEntity
  8
0
  6
CONTINUOUS
 62
          15
100
AcDbText
 10
81.337124317884
 20
36.924571969985
 30
0.0
 40
1.600000023842
  1
2nd ALARM CONDITION
 50
-90.000002504478
 41
0.968749993015
  7
GOTHICI
100
AcDbText
  0
TEXT
  5
3C2
100
AcDbEntity
  8
0
  6
CONTINUOUS
 62
          15
100
AcDbText
 10
85.337124317884
 20
36.924571969985
 30
0.0
 40
1.600000023842
  1
3rd ALARM CONDITION
 50
-90.000002504478
 41
0.968749993015
  7
GOTHICI
100
AcDbText
  0
TEXT
  5
3C3
100
AcDbEntity
  8
0
  6
CONTINUOUS
 62
          15
100
AcDbText
 10
89.337124317884
 20
36.924571969985
 30
0.0
 40
1.600000023842
  1
4th ALARM CONDITION
 50
-90.000002504478
 41
0.968749993015
  7
GOTHICI
100
AcDbText
  0
TEXT
  5
3C4
100
AcDbEntity
  8
0
  6
CONTINUOUS
 62
          15
100
AcDbText
 10
97.337124317884
 20
36.924571969985
 30
0.0
 40
1.600000023842
  1
COMMON
 50
-90.000002504478
 41
0.968749993015
  7
GOTHICI
100
AcDbText
  0
TEXT
  5
3C5
100
AcDbEntity
  8
0
  6
CONTINUOUS
 62
          15
100
AcDbText
 10
101.337124317884
 20
36.924571969985
 30
0.0
 40
1.600000023842
  1
1st ALARM CONDITION
 50
-90.000002504478
 41
0.968749993015
  7
GOTHICI
100
AcDbText
  0
TEXT
  5
3C6
100
AcDbEntity
  8
0
  6
CONTINUOUS
 62
          15
100
AcDbText
 10
105.337124317884
 20
36.924571969985
 30
0.0
 40
1.600000023842
  1
2nd ALARM CONDITION
 50
-90.000002504478
 41
0.968749993015
  7
GOTHICI
100
AcDbText
  0
TEXT
  5
3C7
100
AcDbEntity
  8
0
  6
CONTINUOUS
 62
          15
100
AcDbText
 10
109.337124317884
 20
36.924571969985
 30
0.0
 40
1.600000023842
  1
3rd ALARM CONDITION
 50
-90.000002504478
 41
0.968749993015
  7
GOTHICI
100
AcDbText
  0
TEXT
  5
3C8
100
AcDbEntity
  8
0
  6
CONTINUOUS
 62
          15
100
AcDbText
 10
113.337124317884
 20
36.924571969985
 30
0.0
 40
1.600000023842
  1
4th ALARM CONDITION
 50
-90.000002504478
 41
0.968749993015
  7
GOTHICI
100
AcDbText
  0
LINE
  5
3C9
100
AcDbEntity
  8
0
  6
CONTINUOUS
 62
          15
100
AcDbLine
 10
29.855108261108
 20
38.110767364502
 30
0.0
 11
29.855108261108
 21
43.599685668945
 31
0.0
  0
LINE
  5
3CA
100
AcDbEntity
  8
0
  6
CONTINUOUS
 62
          15
100
AcDbLine
 10
33.888114929199
 20
38.110767364502
 30
0.0
 11
33.888114929199
 21
45.099685668945
 31
0.0
  0
LINE
  5
3CB
100
AcDbEntity
  8
0
  6
CONTINUOUS
 62
          15
100
AcDbLine
 10
37.921123504639
 20
38.110767364502
 30
0.0
 11
37.921123504639
 21
46.599685668945
 31
0.0
  0
LINE
  5
3CC
100
AcDbEntity
  8
0
  6
CONTINUOUS
 62
          15
100
AcDbLine
 10
41.855762481689
 20
38.110767364502
 30
0.0
 11
41.855762481689
 21
48.099685668945
 31
0.0
  0
LINE
  5
3CD
100
AcDbEntity
  8
0
  6
CONTINUOUS
 62
          15
100
AcDbLine
 10
49.921775817871
 20
38.110767364502
 30
0.0
 11
49.921775817871
 21
49.599685668945
 31
0.0
  0
LINE
  5
3CE
100
AcDbEntity
  8
0
  6
CONTINUOUS
 62
          15
100
AcDbLine
 10
53.837413787842
 20
38.079124450684
 30
0.0
 11
53.837413787842
 21
51.099685668945
 31
0.0
  0
LINE
  5
3CF
100
AcDbEntity
  8
0
  6
CONTINUOUS
 62
          15
100
AcDbLine
 10
57.870418548584
 20
38.079124450684
 30
0.0
 11
57.870418548584
 21
52.599685668945
 31
0.0
  0
LINE
  5
3D0
100
AcDbEntity
  8
0
  6
CONTINUOUS
 62
          15
100
AcDbLine
 10
61.903427124023
 20
38.079124450684
 30
0.0
 11
61.903427124023
 21
54.099685668945
 31
0.0
  0
LINE
  5
3D1
100
AcDbEntity
  8
0
  6
CONTINUOUS
 62
          15
100
AcDbLine
 10
65.838073730469
 20
38.079124450684
 30
0.0
 11
65.838073730469
 21
55.599685668945
 31
0.0
  0
LINE
  5
3D2
100
AcDbEntity
  8
0
  6
CONTINUOUS
 62
          15
100
AcDbLine
 10
73.923080444336
 20
38.110767364502
 30
0.0
 11
73.923080444336
 21
57.099685668945
 31
0.0
  0
LINE
  5
3D3
100
AcDbEntity
  8
0
  6
CONTINUOUS
 62
          15
100
AcDbLine
 10
77.838729858398
 20
38.079124450684
 30
0.0
 11
77.838729858398
 21
58.599685668945
 31
0.0
  0
LINE
  5
3D4
100
AcDbEntity
  8
0
  6
CONTINUOUS
 62
          15
100
AcDbLine
 10
81.871734619141
 20
38.079124450684
 30
0.0
 11
81.871734619141
 21
60.099685668945
 31
0.0
  0
LINE
  5
3D5
100
AcDbEntity
  8
0
  6
CONTINUOUS
 62
          15
100
AcDbLine
 10
85.904739379883
 20
38.079124450684
 30
0.0
 11
85.904739379883
 21
61.599685668945
 31
0.0
  0
LINE
  5
3D6
100
AcDbEntity
  8
0
  6
CONTINUOUS
 62
          15
100
AcDbLine
 10
89.839370727539
 20
38.079124450684
 30
0.0
 11
89.839370727539
 21
63.099685668945
 31
0.0
  0
LINE
  5
3D7
100
AcDbEntity
  8
0
  6
CONTINUOUS
 62
          15
100
AcDbLine
 10
97.924392700195
 20
38.110767364502
 30
0.0
 11
97.924392700195
 21
64.599685668945
 31
0.0
  0
LINE
  5
3D8
100
AcDbEntity
  8
0
  6
CONTINUOUS
 62
          15
100
AcDbLine
 10
101.840026855469
 20
38.079124450684
 30
0.0
 11
101.840026855469
 21
66.099685668945
 31
0.0
  0
LINE
  5
3D9
100
AcDbEntity
  8
0
  6
CONTINUOUS
 62
          15
100
AcDbLine
 10
105.873046875
 20
38.079124450684
 30
0.0
 11
105.873046875
 21
67.599685668945
 31
0.0
  0
LINE
  5
3DA
100
AcDbEntity
  8
0
  6
CONTINUOUS
 62
          15
100
AcDbLine
 10
109.906051635742
 20
38.079124450684
 30
0.0
 11
109.906051635742
 21
69.099685668945
 31
0.0
  0
LINE
  5
3DB
100
AcDbEntity
  8
0
  6
CONTINUOUS
 62
          15
100
AcDbLine
 10
113.840682983398
 20
38.079124450684
 30
0.0
 11
113.840682983398
 21
70.599685668945
 31
0.0
  0
LINE
  5
3DC
100
AcDbEntity
  8
0
  6
CONTINUOUS
 62
          15
100
AcDbLine
 10
28.809226989746
 20
43.599685668945
 30
0.0
 11
29.855108261108
 21
43.599685668945
 31
0.0
  0
LINE
  5
3DD
100
AcDbEntity
  8
0
  6
CONTINUOUS
 62
          15
100
AcDbLine
 10
31.718849182129
 20
45.099685668945
 30
0.0
 11
33.888114929199
 21
45.099685668945
 31
0.0
  0
LINE
  5
3DE
100
AcDbEntity
  8
0
  6
CONTINUOUS
 62
          15
100
AcDbLine
 10
34.668323516846
 20
46.599685668945
 30
0.0
 11
37.921123504639
 21
46.599685668945
 31
0.0
  0
LINE
  5
3DF
100
AcDbEntity
  8
0
  6
CONTINUOUS
 62
          15
100
AcDbLine
 10
39.849830627441
 20
49.599685668945
 30
0.0
 11
49.921775817871
 21
49.599685668945
 31
0.0
  0
LINE
  5
3E0
100
AcDbEntity
  8
0
  6
CONTINUOUS
 62
          15
100
AcDbLine
 10
37.378646850586
 20
48.099685668945
 30
0.0
 11
41.855762481689
 21
48.099685668945
 31
0.0
  0
LINE
  5
3E1
100
AcDbEntity
  8
0
  6
CONTINUOUS
 62
          15
100
AcDbLine
 10
42.719585418701
 20
51.099685668945
 30
0.0
 11
53.837413787842
 21
51.099685668945
 31
0.0
  0
LINE
  5
3E2
100
AcDbEntity
  8
0
  6
CONTINUOUS
 62
          15
100
AcDbLine
 10
45.629207611084
 20
52.599685668945
 30
0.0
 11
57.870418548584
 21
52.599685668945
 31
0.0
  0
LINE
  5
3E3
100
AcDbEntity
  8
0
  6
CONTINUOUS
 62
          15
100
AcDbLine
 10
48.578681945801
 20
54.099685668945
 30
0.0
 11
61.903427124023
 21
54.099685668945
 31
0.0
  0
LINE
  5
3E4
100
AcDbEntity
  8
0
  6
CONTINUOUS
 62
          15
100
AcDbLine
 10
51.289005279541
 20
55.599685668945
 30
0.0
 11
65.838073730469
 21
55.599685668945
 31
0.0
  0
LINE
  5
3E5
100
AcDbEntity
  8
0
  6
CONTINUOUS
 62
          15
100
AcDbLine
 10
53.560901641846
 20
57.099685668945
 30
0.0
 11
73.923080444336
 21
57.099685668945
 31
0.0
  0
LINE
  5
3E6
100
AcDbEntity
  8
0
  6
CONTINUOUS
 62
          15
100
AcDbLine
 10
56.430656433105
 20
58.599685668945
 30
0.0
 11
77.838729858398
 21
58.599685668945
 31
0.0
  0
LINE
  5
3E7
100
AcDbEntity
  8
0
  6
CONTINUOUS
 62
          15
100
AcDbLine
 10
59.340278625488
 20
60.099685668945
 30
0.0
 11
81.871734619141
 21
60.099685668945
 31
0.0
  0
LINE
  5
3E8
100
AcDbEntity
  8
0
  6
CONTINUOUS
 62
          15
100
AcDbLine
 10
62.289752960205
 20
61.599685668945
 30
0.0
 11
85.904739379883
 21
61.599685668945
 31
0.0
  0
LINE
  5
3E9
100
AcDbEntity
  8
0
  6
CONTINUOUS
 62
          15
100
AcDbLine
 10
65.000076293945
 20
63.099685668945
 30
0.0
 11
89.839370727539
 21
63.099685668945
 31
0.0
  0
LINE
  5
3EA
100
AcDbEntity
  8
0
  6
CONTINUOUS
 62
          15
100
AcDbLine
 10
67.192245483398
 20
64.599685668945
 30
0.0
 11
97.924392700195
 21
64.599685668945
 31
0.0
  0
LINE
  5
3EB
100
AcDbEntity
  8
0
  6
CONTINUOUS
 62
          15
100
AcDbLine
 10
70.06201171875
 20
66.099685668945
 30
0.0
 11
101.840026855469
 21
66.099685668945
 31
0.0
  0
LINE
  5
3EC
100
AcDbEntity
  8
0
  6
CONTINUOUS
 62
          15
100
AcDbLine
 10
75.921096801758
 20
69.099685668945
 30
0.0
 11
109.906051635742
 21
69.099685668945
 31
0.0
  0
LINE
  5
3ED
100
AcDbEntity
  8
0
  6
CONTINUOUS
 62
          15
100
AcDbLine
 10
72.971633911133
 20
67.599685668945
 30
0.0
 11
105.873046875
 21
67.599685668945
 31
0.0
  0
LINE
  5
3EE
100
AcDbEntity
  8
0
  6
CONTINUOUS
 62
          15
100
AcDbLine
 10
78.631423950195
 20
70.599685668945
 30
0.0
 11
113.840682983398
 21
70.599685668945
 31
0.0
  0
TEXT
  5
3EF
100
AcDbEntity
  8
0
  6
CONTINUOUS
 62
          15
100
AcDbText
 10
49.699195861816
 20
3.097878217697
 30
0.0
 40
2.5
  1
2nd GAS
 41
1.040000009537
  7
GOTHICI
100
AcDbText
  0
TEXT
  5
3F0
100
AcDbEntity
  8
0
  6
CONTINUOUS
 62
          15
100
AcDbText
 10
25.699195861816
 20
3.097878217697
 30
0.0
 40
2.5
  1
1st GAS
 41
1.040000009537
  7
GOTHICI
100
AcDbText
  0
TEXT
  5
3F1
100
AcDbEntity
  8
0
  6
CONTINUOUS
 62
          15
100
AcDbText
 10
73.699203491211
 20
3.097878217697
 30
0.0
 40
2.5
  1
3rd GAS
 41
1.040000009537
  7
GOTHICI
100
AcDbText
  0
TEXT
  5
3F2
100
AcDbEntity
  8
0
  6
CONTINUOUS
 62
          15
100
AcDbText
 10
97.699203491211
 20
3.097878217697
 30
0.0
 40
2.5
  1
4th GAS
 41
1.040000009537
  7
GOTHICI
100
AcDbText
  0
ENDSEC
  0
SECTION
  2
OBJECTS
  0
DICTIONARY
  5
19
100
AcDbDictionary
  3
ACAD_GROUP
350
1A
  3
ACAD_MLINESTYLE
350
1B
  0
DICTIONARY
  5
1A
102
{ACAD_REACTORS
330
19
102
}
100
AcDbDictionary
  0
DICTIONARY
  5
1B
102
{ACAD_REACTORS
330
19
102
}
100
AcDbDictionary
  3
STANDARD
350
1C
  0
MLINESTYLE
  5
1C
102
{ACAD_REACTORS
330
1B
102
}
100
AcDbMlineStyle
  2
STANDARD
 70
           0
  3

 62
           0
 51
90.0
 52
90.0
 71
           2
 49
0.5
 62
         256
  6
BYLAYER
 49
-0.5
 62
         256
  6
BYLAYER
  0
ENDSEC
  0
EOF
