  0
SECTION
  2
HEADER
  9
$ACADVER
  1
AC1012
  9
$DWGCODEPAGE
  3
dos850
  9
$INSBASE
 10
0.0
 20
0.0
 30
0.0
  9
$EXTMIN
 10
11.067749023438
 20
4.17480802536
 30
0.0
  9
$EXTMAX
 10
268.498069763184
 20
186.050720214844
 30
0.0
  9
$LIMMIN
 10
11.067749023438
 20
4.17480802536
  9
$LIMMAX
 10
268.498069763184
 20
186.050720214844
  9
$ORTHOMODE
 70
           0
  9
$REGENMODE
 70
           1
  9
$FILLMODE
 70
           1
  9
$QTEXTMODE
 70
           0
  9
$MIRRTEXT
 70
           1
  9
$DRAGMODE
 70
           2
  9
$LTSCALE
 40
5.0
  9
$OSMODE
 70
           0
  9
$ATTMODE
 70
           1
  9
$TEXTSIZE
 40
0.2
  9
$TRACEWID
 40
0.05
  9
$TEXTSTYLE
  7
TXT
  9
$CLAYER
  8
0
  9
$CELTYPE
  6
CONTINUOUS
  9
$CECOLOR
 62
         256
  9
$CELTSCALE
 40
1.0
  9
$DELOBJ
 70
           1
  9
$DISPSILH
 70
           0
  9
$DIMSCALE
 40
1.0
  9
$DIMASZ
 40
3.5
  9
$DIMEXO
 40
0.0625
  9
$DIMDLI
 40
0.38
  9
$DIMRND
 40
0.0
  9
$DIMDLE
 40
0.0
  9
$DIMEXE
 40
0.18
  9
$DIMTP
 40
0.0
  9
$DIMTM
 40
0.0
  9
$DIMTXT
 40
3.5
  9
$DIMCEN
 40
0.09
  9
$DIMTSZ
 40
0.0
  9
$DIMTOL
 70
           0
  9
$DIMLIM
 70
           0
  9
$DIMTIH
 70
           1
  9
$DIMTOH
 70
           1
  9
$DIMSE1
 70
           0
  9
$DIMSE2
 70
           0
  9
$DIMTAD
 70
           0
  9
$DIMZIN
 70
           0
  9
$DIMBLK
  1

  9
$DIMASO
 70
           1
  9
$DIMSHO
 70
           1
  9
$DIMPOST
  1

  9
$DIMAPOST
  1

  9
$DIMALT
 70
           0
  9
$DIMALTD
 70
           2
  9
$DIMALTF
 40
25.4
  9
$DIMLFAC
 40
1.0
  9
$DIMTOFL
 70
           0
  9
$DIMTVP
 40
0.0
  9
$DIMTIX
 70
           0
  9
$DIMSOXD
 70
           0
  9
$DIMSAH
 70
           0
  9
$DIMBLK1
  1

  9
$DIMBLK2
  1

  9
$DIMSTYLE
  2
STANDARD
  9
$DIMCLRD
 70
           0
  9
$DIMCLRE
 70
           0
  9
$DIMCLRT
 70
           0
  9
$DIMTFAC
 40
1.0
  9
$DIMGAP
 40
0.09
  9
$DIMJUST
 70
           0
  9
$DIMSD1
 70
           0
  9
$DIMSD2
 70
           0
  9
$DIMTOLJ
 70
           1
  9
$DIMTZIN
 70
           0
  9
$DIMALTZ
 70
           0
  9
$DIMALTTZ
 70
           0
  9
$DIMFIT
 70
           3
  9
$DIMUPT
 70
           0
  9
$DIMUNIT
 70
           2
  9
$DIMDEC
 70
           4
  9
$DIMTDEC
 70
           4
  9
$DIMALTU
 70
           2
  9
$DIMALTTD
 70
           2
  9
$DIMTXSTY
  7
TXT
  9
$DIMAUNIT
 70
           0
  9
$LUNITS
 70
           2
  9
$LUPREC
 70
           2
  9
$SKETCHINC
 40
0.1
  9
$FILLETRAD
 40
0.0
  9
$AUNITS
 70
           0
  9
$AUPREC
 70
           2
  9
$MENU
  1
acad
  9
$ELEVATION
 40
0.0
  9
$PELEVATION
 40
0.0
  9
$THICKNESS
 40
0.0
  9
$LIMCHECK
 70
           0
  9
$BLIPMODE
 70
           1
  9
$CHAMFERA
 40
0.0
  9
$CHAMFERB
 40
0.0
  9
$CHAMFERC
 40
0.0
  9
$CHAMFERD
 40
0.0
  9
$SKPOLY
 70
           0
  9
$TDCREATE
 40
0.000000000
  9
$TDUPDATE
 40
0.000000000
  9
$TDINDWG
 40
0.0000000000
  9
$TDUSRTIMER
 40
0.0000000000
  9
$USRTIMER
 70
           1
  9
$ANGBASE
 50
0.0
  9
$ANGDIR
 70
           0
  9
$PDMODE
 70
           2
  9
$PDSIZE
 40
0.5
  9
$PLINEWID
 40
0.0
  9
$COORDS
 70
           0
  9
$SPLFRAME
 70
           0
  9
$SPLINETYPE
 70
           6
  9
$SPLINESEGS
 70
           8
  9
$ATTDIA
 70
           0
  9
$ATTREQ
 70
           1
  9
$HANDLING
 70
           1
  9
$HANDSEED
  5
4BD
  9
$SURFTAB1
 70
           6
  9
$SURFTAB2
 70
           6
  9
$SURFTYPE
 70
           6
  9
$SURFU
 70
           6
  9
$SURFV
 70
           6
  9
$UCSNAME
  2

  9
$UCSORG
 10
0.0
 20
0.0
 30
0.0
  9
$UCSXDIR
 10
1.0
 20
0.0
 30
0.0
  9
$UCSYDIR
 10
0.0
 20
1.0
 30
0.0
  9
$PUCSNAME
  2

  9
$PUCSORG
 10
0.0
 20
0.0
 30
0.0
  9
$PUCSXDIR
 10
1.0
 20
0.0
 30
0.0
  9
$PUCSYDIR
 10
0.0
 20
1.0
 30
0.0
  9
$USERI1
 70
           0
  9
$USERI2
 70
           0
  9
$USERI3
 70
           0
  9
$USERI4
 70
           0
  9
$USERI5
 70
           0
  9
$USERR1
 40
0.0
  9
$USERR2
 40
0.0
  9
$USERR3
 40
0.0
  9
$USERR4
 40
0.0
  9
$USERR5
 40
0.0
  9
$WORLDVIEW
 70
           1
  9
$SHADEDGE
 70
           3
  9
$SHADEDIF
 70
          70
  9
$TILEMODE
 70
           1
  9
$MAXACTVP
 70
          16
  9
$PINSBASE
 10
0.0
 20
0.0
 30
0.0
  9
$PLIMCHECK
 70
           0
  9
$PEXTMIN
 10
1.000000000000E+20
 20
1.000000000000E+20
 30
1.000000000000E+20
  9
$PEXTMAX
 10
-1.000000000000E+20
 20
-1.000000000000E+20
 30
-1.000000000000E+20
  9
$PLIMMIN
 10
0.0
 20
0.0
  9
$PLIMMAX
 10
12.0
 20
9.0
  9
$UNITMODE
 70
           0
  9
$VISRETAIN
 70
           0
  9
$PLINEGEN
 70
           1
  9
$PSLTSCALE
 70
           0
  9
$TREEDEPTH
 70
        3020
  9
$PICKSTYLE
 70
           1
  9
$CMLSTYLE
  2
STANDARD
  9
$CMLJUST
 70
           0
  9
$CMLSCALE
 40
1.0
  9
$SAVEIMAGES
 70
           0
  0
ENDSEC
  0
SECTION
  2
CLASSES
  0
CLASS
  1
LWPOLYLINE
  2
AcDbPolyline
  3
"AutoCAD"
 90
        0
280
           0
281
           1
  0
CLASS
  1
IMAGE
  2
AcDbRasterImage
  3
ISM
 90
      127
280
           0
281
           1
  0
CLASS
  1
OLE2FRAME
  2
AcDbOle2Frame
  3
""
 90
        0
280
           0
281
           1
  0
CLASS
  1
HATCH
  2
AcDbHatch
  3
"ACAD_SEDONA"
 90
        0
280
           0
281
           1
  0
CLASS
  1
DICTIONARYVAR
  2
AcDbDictionaryVar
  3
"AutoCAD"
 90
        0
280
           0
281
           0
  0
CLASS
  1
RASTERVARIABLES
  2
AcDbRasterVariables
  3
ISM
 90
        0
280
           0
281
           0
  0
CLASS
  1
IMAGEDEF
  2
AcDbRasterImageDef
  3
ISM
 90
        0
280
           0
281
           0
  0
CLASS
  1
IMAGEDEF_REACTOR
  2
AcDbRasterImageDefReactor
  3
ISM
 90
        1
280
           0
281
           0
  0
CLASS
  1
IDBUFFER
  2
AcDbIdBuffer
  3
"Acad"
 90
        0
280
           0
281
           0
  0
CLASS
  1
SPATIAL_FILTER
  2
AcDbSpatialFilter
  3
"Acad"
 90
        0
280
           0
281
           0
  0
CLASS
  1
XRECORD
  2
AcDbXrecord
  3
"<Built In>"
 90
        0
280
           0
281
           0
  0
ENDSEC
  0
SECTION
  2
TABLES
  0
TABLE
  2
VPORT
  5
7
100
AcDbSymbolTable
 70
           1
  0
VPORT
  5
15
100
AcDbSymbolTableRecord
100
AcDbViewportTableRecord
  2
*ACTIVE
 70
           0
 10
0.0
 20
0.0
 11
1.0
 21
1.0
 12
6.591288
 22
4.579184
 13
0.0
 23
0.0
 14
1.0
 24
1.0
 15
0.0
 25
0.0
 16
0.0
 26
0.0
 36
1.0
 17
0.0
 27
0.0
 37
0.0
 40
9.158369
 41
0.688564
 42
50.0
 43
0.0
 44
0.0
 50
0.0
 51
0.0
 71
           0
 72
         100
 73
           1
 74
           1
 75
           0
 76
           0
 77
           0
 78
           0
  0
ENDTAB
  0
TABLE
  2
LTYPE
  5
4
100
AcDbSymbolTable
 70
           3
  0
LTYPE
  5
11
100
AcDbSymbolTableRecord
100
AcDbLinetypeTableRecord
  2
BYBLOCK
 70
           0
  3

 72
          65
 73
           0
 40
0.0
  0
LTYPE
  5
12
100
AcDbSymbolTableRecord
100
AcDbLinetypeTableRecord
  2
BYLAYER
 70
           0
  3

 72
          65
 73
           0
 40
0.0
  0
LTYPE
  5
13
100
AcDbSymbolTableRecord
100
AcDbLinetypeTableRecord
  2
CONTINUOUS
 70
           0
  3
Solid line
 72
          65
 73
           0
 40
0.0
  0
ENDTAB
  0
TABLE
  2
LAYER
  5
2
100
AcDbSymbolTable
 70
           1
  0
LAYER
  5
14
100
AcDbSymbolTableRecord
100
AcDbLayerTableRecord
  2
0
 70
           0
 62
           7
  6
CONTINUOUS
  0
ENDTAB
  0
TABLE
  2
STYLE
  5
3
100
AcDbSymbolTable
 70
           6
  0
STYLE
  5
17
100
AcDbSymbolTableRecord
100
AcDbTextStyleTableRecord
  2
TXT
 70
           0
 40
3.5
 41
1.0
 50
0.0
 71
           0
 42
3.5
  3
TXT
  4

  0
STYLE
  5
1D
100
AcDbSymbolTableRecord
100
AcDbTextStyleTableRecord
  2
ROMAND
 70
           0
 40
3.5
 41
1.0
 50
0.0
 71
           0
 42
3.5
  3
ROMAND
  4

  0
STYLE
  5
1E
100
AcDbSymbolTableRecord
100
AcDbTextStyleTableRecord
  2
GOTHICG
 70
           0
 40
3.5
 41
1.0
 50
0.0
 71
           0
 42
3.5
  3
GOTHICG
  4

  0
STYLE
  5
1F
100
AcDbSymbolTableRecord
100
AcDbTextStyleTableRecord
  2
SIMPLEX
 70
           0
 40
3.5
 41
1.0
 50
0.0
 71
           0
 42
3.5
  3
SIMPLEX
  4

  0
STYLE
  5
20
100
AcDbSymbolTableRecord
100
AcDbTextStyleTableRecord
  2
ROMANT
 70
           0
 40
3.5
 41
1.0
 50
0.0
 71
           0
 42
3.5
  3
ROMANT
  4

  0
STYLE
  5
21
100
AcDbSymbolTableRecord
100
AcDbTextStyleTableRecord
  2
GOTHICI
 70
           0
 40
3.5
 41
1.0
 50
0.0
 71
           0
 42
3.5
  3
GOTHICI
  4

  0
ENDTAB
  0
TABLE
  2
VIEW
  5
5
100
AcDbSymbolTable
 70
           0
  0
ENDTAB
  0
TABLE
  2
UCS
  5
6
100
AcDbSymbolTable
 70
           0
  0
ENDTAB
  0
TABLE
  2
APPID
  5
8
100
AcDbSymbolTable
 70
           2
  0
APPID
  5
16
100
AcDbSymbolTableRecord
100
AcDbRegAppTableRecord
  2
ACAD
 70
           0
  0
APPID
  5
22
100
AcDbSymbolTableRecord
100
AcDbRegAppTableRecord
  2
MegaCADPntStyle
 70
           0
  0
ENDTAB
  0
TABLE
  2
DIMSTYLE
  5
9
100
AcDbSymbolTable
 70
           1
  0
DIMSTYLE
105
18
100
AcDbSymbolTableRecord
100
AcDbDimStyleTableRecord
  2
STANDARD
 70
           0
  3

  4

  5

  6

  7

 40
1.0
 41
0.18
 42
0.0625
 43
0.38
 44
0.18
 45
0.0
 46
0.0
 47
0.0
 48
0.0
140
0.18
141
0.09
142
0.0
143
25.4
144
1.0
145
0.0
146
1.0
147
0.09
 71
           0
 72
           0
 73
           1
 74
           1
 75
           0
 76
           0
 77
           0
 78
           0
170
           0
171
           2
172
           0
173
           0
174
           0
175
           0
176
           0
177
           0
178
           0
270
           2
271
           4
272
           4
273
           2
274
           2
340
17
275
           0
280
           0
281
           0
282
           0
283
           1
284
           0
285
           0
286
           0
287
           0
288
           0
  0
ENDTAB
  0
TABLE
  2
BLOCK_RECORD
  5
1
100
AcDbSymbolTable
 70
           9
  0
BLOCK_RECORD
  5
A
100
AcDbSymbolTableRecord
100
AcDbBlockTableRecord
  2
*MODEL_SPACE
  0
BLOCK_RECORD
  5
B
100
AcDbSymbolTableRecord
100
AcDbBlockTableRecord
  2
*PAPER_SPACE
  0
BLOCK_RECORD
  5
23
102
{ACAD_XDICTIONARY
360
C0CCCCF4
102
}
100
AcDbSymbolTableRecord
100
AcDbBlockTableRecord
  2
ELIPPSE
  0
BLOCK_RECORD
  5
24
102
{ACAD_XDICTIONARY
360
C0CCCCF4
102
}
100
AcDbSymbolTableRecord
100
AcDbBlockTableRecord
  2
TB4C_1
  0
BLOCK_RECORD
  5
25
102
{ACAD_XDICTIONARY
360
C0CCCCF4
102
}
100
AcDbSymbolTableRecord
100
AcDbBlockTableRecord
  2
TB4C_2
  0
BLOCK_RECORD
  5
26
102
{ACAD_XDICTIONARY
360
C0CCCCF4
102
}
100
AcDbSymbolTableRecord
100
AcDbBlockTableRecord
  2
TB4C_3
  0
BLOCK_RECORD
  5
27
102
{ACAD_XDICTIONARY
360
C0CCCCF4
102
}
100
AcDbSymbolTableRecord
100
AcDbBlockTableRecord
  2
SUPPLY_4
  0
BLOCK_RECORD
  5
28
102
{ACAD_XDICTIONARY
360
C0CCCCF4
102
}
100
AcDbSymbolTableRecord
100
AcDbBlockTableRecord
  2
RES_5
  0
BLOCK_RECORD
  5
29
102
{ACAD_XDICTIONARY
360
C0CCCCF4
102
}
100
AcDbSymbolTableRecord
100
AcDbBlockTableRecord
  2
SATERM_6
  0
BLOCK_RECORD
  5
2A
102
{ACAD_XDICTIONARY
360
C0CCCCF4
102
}
100
AcDbSymbolTableRecord
100
AcDbBlockTableRecord
  2
SA_7
  0
BLOCK_RECORD
  5
2B
102
{ACAD_XDICTIONARY
360
C0CCCCF4
102
}
100
AcDbSymbolTableRecord
100
AcDbBlockTableRecord
  2
CABLEREQ_8
  0
ENDTAB
  0
ENDSEC
  0
SECTION
  2
BLOCKS
  0
BLOCK
  5
D
100
AcDbEntity
  8
0
100
AcDbBlockBegin
  2
*MODEL_SPACE
 70
           0
 10
0.0
 20
0.0
 30
0.0
  3
*MODEL_SPACE
  1

  0
ENDBLK
  5
E
100
AcDbEntity
  8
0
100
AcDbBlockEnd
  0
BLOCK
  5
F
100
AcDbEntity
 67
           1
  8
0
100
AcDbBlockBegin
  2
*PAPER_SPACE
 70
           0
 10
0.0
 20
0.0
 30
0.0
  3
*PAPER_SPACE
  1

  0
ENDBLK
  5
10
100
AcDbEntity
 67
           1
  8
0
100
AcDbBlockEnd
  0
BLOCK
  5
39A
100
AcDbEntity
  8
0
100
AcDbBlockBegin
  2
ELIPPSE
 70
          64
 10
0.0
 20
0.0
 30
0.0
  3
ELIPPSE
  1

  0
CIRCLE
  5
39B
100
AcDbEntity
  8
0
  6
BYBLOCK
 62
           0
100
AcDbCircle
 10
0.0
 20
0.0
 30
0.0
 40
1.0
  0
ENDBLK
  5
39C
100
AcDbEntity
  8
0
  6
BYBLOCK
 62
           0
100
AcDbBlockEnd
  0
BLOCK
  5
39D
100
AcDbEntity
  8
0
100
AcDbBlockBegin
  2
TB4C_1
 70
          64
 10
0.0
 20
0.0
 30
0.0
  3
TB4C_1
  1

  0
LINE
  5
39E
100
AcDbEntity
  8
0
  6
CONTINUOUS
 62
          15
100
AcDbLine
 10
-0.024833679199
 20
-21.036575317383
 30
0.0
 11
15.225166320801
 21
-21.036575317383
 31
0.0
  0
LINE
  5
39F
100
AcDbEntity
  8
0
  6
CONTINUOUS
 62
          15
100
AcDbLine
 10
20.624473571777
 20
-26.159708023071
 30
0.0
 11
22.624473571777
 21
-26.159708023071
 31
0.0
  0
LINE
  5
3A0
100
AcDbEntity
  8
0
  6
CONTINUOUS
 62
          15
100
AcDbLine
 10
13.225166320801
 20
-26.159708023071
 30
0.0
 11
15.624473571777
 21
-26.159708023071
 31
0.0
  0
LINE
  5
3A1
100
AcDbEntity
  8
0
  6
CONTINUOUS
 62
          15
100
AcDbLine
 10
20.624473571777
 20
-31.159708023071
 30
0.0
 11
22.624473571777
 21
-31.159708023071
 31
0.0
  0
LINE
  5
3A2
100
AcDbEntity
  8
0
  6
CONTINUOUS
 62
          15
100
AcDbLine
 10
13.225166320801
 20
-31.159708023071
 30
0.0
 11
15.624473571777
 21
-31.159708023071
 31
0.0
  0
LINE
  5
3A3
100
AcDbEntity
  8
0
  6
CONTINUOUS
 62
          15
100
AcDbLine
 10
10.975166320801
 20
-31.159708023071
 30
0.0
 11
13.225166320801
 21
-31.159708023071
 31
0.0
  0
LINE
  5
3A4
100
AcDbEntity
  8
0
  6
CONTINUOUS
 62
          15
100
AcDbLine
 10
20.624473571777
 20
-36.159708023071
 30
0.0
 11
22.624473571777
 21
-36.159708023071
 31
0.0
  0
LINE
  5
3A5
100
AcDbEntity
  8
0
  6
CONTINUOUS
 62
          15
100
AcDbLine
 10
13.225166320801
 20
-36.159708023071
 30
0.0
 11
15.624473571777
 21
-36.159708023071
 31
0.0
  0
LINE
  5
3A6
100
AcDbEntity
  8
0
  6
CONTINUOUS
 62
          15
100
AcDbLine
 10
8.725166320801
 20
-36.159708023071
 30
0.0
 11
13.225166320801
 21
-36.159708023071
 31
0.0
  0
LINE
  5
3A7
100
AcDbEntity
  8
0
  6
CONTINUOUS
 62
          15
100
AcDbLine
 10
20.624473571777
 20
-41.159708976746
 30
0.0
 11
22.624473571777
 21
-41.159708976746
 31
0.0
  0
LINE
  5
3A8
100
AcDbEntity
  8
0
  6
CONTINUOUS
 62
          15
100
AcDbLine
 10
13.225166320801
 20
-41.159708976746
 30
0.0
 11
15.624473571777
 21
-41.159708976746
 31
0.0
  0
LINE
  5
3A9
100
AcDbEntity
  8
0
  6
CONTINUOUS
 62
          15
100
AcDbLine
 10
6.475166320801
 20
-41.159708976746
 30
0.0
 11
13.225166320801
 21
-41.159708976746
 31
0.0
  0
LINE
  5
3AA
100
AcDbEntity
  8
0
  6
CONTINUOUS
 62
          15
100
AcDbLine
 10
20.624473571777
 20
-26.159708023071
 30
0.0
 11
20.624473571777
 21
-24.159708023071
 31
0.0
  0
LINE
  5
3AB
100
AcDbEntity
  8
0
  6
CONTINUOUS
 62
          15
100
AcDbLine
 10
20.624473571777
 20
-31.159708023071
 30
0.0
 11
20.624473571777
 21
-29.159708023071
 31
0.0
  0
LINE
  5
3AC
100
AcDbEntity
  8
0
  6
CONTINUOUS
 62
          15
100
AcDbLine
 10
20.624473571777
 20
-36.159708023071
 30
0.0
 11
20.624473571777
 21
-34.159708023071
 31
0.0
  0
LINE
  5
3AD
100
AcDbEntity
  8
0
  6
CONTINUOUS
 62
          15
100
AcDbLine
 10
20.624473571777
 20
-41.159708976746
 30
0.0
 11
20.624473571777
 21
-39.159708976746
 31
0.0
  0
LINE
  5
3AE
100
AcDbEntity
  8
0
  6
CONTINUOUS
 62
          15
100
AcDbLine
 10
15.624473571777
 20
-41.159708976746
 30
0.0
 11
21.124473571777
 21
-39.159708976746
 31
0.0
  0
LINE
  5
3AF
100
AcDbEntity
  8
0
  6
CONTINUOUS
 62
          15
100
AcDbLine
 10
15.624473571777
 20
-36.159708023071
 30
0.0
 11
21.124473571777
 21
-34.159708023071
 31
0.0
  0
LINE
  5
3B0
100
AcDbEntity
  8
0
  6
CONTINUOUS
 62
          15
100
AcDbLine
 10
15.624473571777
 20
-31.159708023071
 30
0.0
 11
21.124473571777
 21
-29.159708023071
 31
0.0
  0
LINE
  5
3B1
100
AcDbEntity
  8
0
  6
CONTINUOUS
 62
          15
100
AcDbLine
 10
15.624473571777
 20
-26.159708023071
 30
0.0
 11
21.124473571777
 21
-24.159708023071
 31
0.0
  0
LINE
  5
3B2
100
AcDbEntity
  8
0
  6
CONTINUOUS
 62
          15
100
AcDbLine
 10
4.225166320801
 20
-46.159708976746
 30
0.0
 11
24.099533081055
 21
-46.159708976746
 31
0.0
  0
LINE
  5
3B3
100
AcDbEntity
  8
0
  6
CONTINUOUS
 62
          15
100
AcDbLine
 10
-0.024833679199
 20
-21.036575317383
 30
0.0
 11
-0.024833679199
 21
-0.048358917236
 31
0.0
  0
LINE
  5
3B4
100
AcDbEntity
  8
0
  6
CONTINUOUS
 62
          15
100
AcDbLine
 10
15.225166320801
 20
-21.036575317383
 30
0.0
 11
15.225166320801
 21
-0.048358917236
 31
0.0
  0
LINE
  5
3B5
100
AcDbEntity
  8
0
  6
CONTINUOUS
 62
          15
100
AcDbLine
 10
0.975166320801
 20
-21.036575317383
 30
0.0
 11
0.975166320801
 21
-13.256450653076
 31
0.0
  0
LINE
  5
3B6
100
AcDbEntity
  8
0
  6
CONTINUOUS
 62
          15
100
AcDbLine
 10
13.225166320801
 20
-26.159708023071
 30
0.0
 11
13.225166320801
 21
-21.036575317383
 31
0.0
  0
LINE
  5
3B7
100
AcDbEntity
  8
0
  6
CONTINUOUS
 62
          15
100
AcDbLine
 10
10.975166320801
 20
-31.159708023071
 30
0.0
 11
10.975166320801
 21
-21.036575317383
 31
0.0
  0
LINE
  5
3B8
100
AcDbEntity
  8
0
  6
CONTINUOUS
 62
          15
100
AcDbLine
 10
8.725166320801
 20
-36.159708023071
 30
0.0
 11
8.725166320801
 21
-21.036575317383
 31
0.0
  0
LINE
  5
3B9
100
AcDbEntity
  8
0
  6
CONTINUOUS
 62
          15
100
AcDbLine
 10
6.475166320801
 20
-41.159708976746
 30
0.0
 11
6.475166320801
 21
-21.036575317383
 31
0.0
  0
LINE
  5
3BA
100
AcDbEntity
  8
0
  6
CONTINUOUS
 62
          15
100
AcDbLine
 10
4.225166320801
 20
-46.159708976746
 30
0.0
 11
4.225166320801
 21
-21.036575317383
 31
0.0
  0
LINE
  5
3BB
100
AcDbEntity
  8
0
  6
CONTINUOUS
 62
          15
100
AcDbLine
 10
14.225166320801
 20
-21.036575317383
 30
0.0
 11
14.225166320801
 21
-13.256450653076
 31
0.0
  0
LINE
  5
3BC
100
AcDbEntity
  8
0
  6
CONTINUOUS
 62
          15
100
AcDbLine
 10
24.099533081055
 20
-46.159708976746
 30
0.0
 11
24.099533081055
 21
-26.159708023071
 31
0.0
  0
LINE
  5
3BD
100
AcDbEntity
  8
0
  6
CONTINUOUS
 62
          15
100
AcDbLine
 10
22.624473571777
 20
-26.159708023071
 30
0.0
 11
24.099533081055
 21
-26.159708023071
 31
0.0
  0
LINE
  5
3BE
100
AcDbEntity
  8
0
  6
CONTINUOUS
 62
          15
100
AcDbLine
 10
22.624473571777
 20
-31.159708023071
 30
0.0
 11
24.099533081055
 21
-31.159708023071
 31
0.0
  0
LINE
  5
3BF
100
AcDbEntity
  8
0
  6
CONTINUOUS
 62
          15
100
AcDbLine
 10
22.624473571777
 20
-36.159708023071
 30
0.0
 11
24.099533081055
 21
-36.159708023071
 31
0.0
  0
LINE
  5
3C0
100
AcDbEntity
  8
0
  6
CONTINUOUS
 62
          15
100
AcDbLine
 10
22.624473571777
 20
-41.159708976746
 30
0.0
 11
24.099533081055
 21
-41.159708976746
 31
0.0
  0
TEXT
  5
3C1
100
AcDbEntity
  8
0
  6
CONTINUOUS
 62
          15
100
AcDbText
 10
3.71923828125
 20
-48.691222384572
 30
0.0
 40
1.350000023842
  1
PRESSURE SWITCHES
 41
1.037037001062
  7
GOTHICI
100
AcDbText
  0
LINE
  5
3C2
100
AcDbEntity
  8
0
  6
CONTINUOUS
 62
          15
100
AcDbLine
 10
-0.024833679199
 20
-0.048358917236
 30
0.0
 11
15.225166320801
 21
-0.048358917236
 31
0.0
  0
LINE
  5
3C3
100
AcDbEntity
  8
0
  6
CONTINUOUS
 62
          15
100
AcDbLine
 10
0.975166320801
 20
-7.445446014404
 30
0.0
 11
0.975166320801
 21
-0.048358917236
 31
0.0
  0
LINE
  5
3C4
100
AcDbEntity
  8
0
  6
CONTINUOUS
 62
          15
100
AcDbLine
 10
14.225166320801
 20
-7.445446014404
 30
0.0
 11
14.225166320801
 21
-0.048358917236
 31
0.0
  0
TEXT
  5
3C5
100
AcDbEntity
  8
0
  6
CONTINUOUS
 62
          15
100
AcDbText
 10
3.967971801758
 20
-12.780363455415
 30
0.0
 40
2.0
  1
TB4
 41
1.400000035763
  7
ROMANT
100
AcDbText
  0
LINE
  5
3C6
100
AcDbEntity
  8
0
  6
CONTINUOUS
 62
          15
100
AcDbLine
 10
0.975166320801
 20
-18.466148376465
 30
0.0
 11
14.170303344727
 21
-18.466148376465
 31
0.0
  0
LINE
  5
3C7
100
AcDbEntity
  8
0
  6
CONTINUOUS
 62
          15
100
AcDbLine
 10
12.183723449707
 20
-18.466148376465
 30
0.0
 11
12.183723449707
 21
-16.256450653076
 31
0.0
  0
LINE
  5
3C8
100
AcDbEntity
  8
0
  6
CONTINUOUS
 62
          15
100
AcDbLine
 10
9.881103515625
 20
-18.466148376465
 30
0.0
 11
9.881103515625
 21
-16.256450653076
 31
0.0
  0
LINE
  5
3C9
100
AcDbEntity
  8
0
  6
CONTINUOUS
 62
          15
100
AcDbLine
 10
7.668785095215
 20
-18.466148376465
 30
0.0
 11
7.668785095215
 21
-16.256450653076
 31
0.0
  0
LINE
  5
3CA
100
AcDbEntity
  8
0
  6
CONTINUOUS
 62
          15
100
AcDbLine
 10
5.411308288574
 20
-18.466148376465
 30
0.0
 11
5.411308288574
 21
-16.256450653076
 31
0.0
  0
LINE
  5
3CB
100
AcDbEntity
  8
0
  6
CONTINUOUS
 62
          15
100
AcDbLine
 10
12.183723449707
 20
-4.611057281494
 30
0.0
 11
12.183723449707
 21
-2.544281005859
 31
0.0
  0
LINE
  5
3CC
100
AcDbEntity
  8
0
  6
CONTINUOUS
 62
          15
100
AcDbLine
 10
9.881103515625
 20
-4.611057281494
 30
0.0
 11
9.881103515625
 21
-2.544281005859
 31
0.0
  0
LINE
  5
3CD
100
AcDbEntity
  8
0
  6
CONTINUOUS
 62
          15
100
AcDbLine
 10
7.668785095215
 20
-4.611057281494
 30
0.0
 11
7.668785095215
 21
-2.544281005859
 31
0.0
  0
LINE
  5
3CE
100
AcDbEntity
  8
0
  6
CONTINUOUS
 62
          15
100
AcDbLine
 10
5.411308288574
 20
-4.611057281494
 30
0.0
 11
5.411308288574
 21
-2.544281005859
 31
0.0
  0
LINE
  5
3CF
100
AcDbEntity
  8
0
  6
CONTINUOUS
 62
          15
100
AcDbLine
 10
0.975166320801
 20
-2.544281005859
 30
0.0
 11
14.170303344727
 21
-2.544281005859
 31
0.0
  0
TEXT
  5
3D0
100
AcDbEntity
  8
0
  6
CONTINUOUS
 62
          15
100
AcDbText
 10
2.030456542969
 20
-2.018242478371
 30
0.0
 40
1.200000047684
  1
TO ALARM
 41
1.249999950329
  7
ROMANT
100
AcDbText
  0
TEXT
  5
3D1
100
AcDbEntity
  8
0
  6
CONTINUOUS
 62
          15
100
AcDbText
 10
1.867897033691
 20
-20.333458542824
 30
0.0
 40
1.200000047684
  1
TO PLANT
 41
1.249999950329
  7
ROMANT
100
AcDbText
  0
ENDBLK
  5
3D2
100
AcDbEntity
  8
0
  6
BYBLOCK
 62
           0
100
AcDbBlockEnd
  0
BLOCK
  5
3D3
100
AcDbEntity
  8
0
100
AcDbBlockBegin
  2
TB4C_2
 70
          64
 10
0.0
 20
0.0
 30
0.0
  3
TB4C_2
  1

  0
LINE
  5
3D4
100
AcDbEntity
  8
0
  6
CONTINUOUS
 62
          15
100
AcDbLine
 10
-0.024833679199
 20
-21.036575317383
 30
0.0
 11
15.225166320801
 21
-21.036575317383
 31
0.0
  0
LINE
  5
3D5
100
AcDbEntity
  8
0
  6
CONTINUOUS
 62
          15
100
AcDbLine
 10
20.624473571777
 20
-31.159708023071
 30
0.0
 11
22.624473571777
 21
-31.159708023071
 31
0.0
  0
LINE
  5
3D6
100
AcDbEntity
  8
0
  6
CONTINUOUS
 62
          15
100
AcDbLine
 10
13.225166320801
 20
-31.159708023071
 30
0.0
 11
15.624473571777
 21
-31.159708023071
 31
0.0
  0
LINE
  5
3D7
100
AcDbEntity
  8
0
  6
CONTINUOUS
 62
          15
100
AcDbLine
 10
10.975166320801
 20
-31.159708023071
 30
0.0
 11
13.225166320801
 21
-31.159708023071
 31
0.0
  0
LINE
  5
3D8
100
AcDbEntity
  8
0
  6
CONTINUOUS
 62
          15
100
AcDbLine
 10
20.624473571777
 20
-36.159708023071
 30
0.0
 11
22.624473571777
 21
-36.159708023071
 31
0.0
  0
LINE
  5
3D9
100
AcDbEntity
  8
0
  6
CONTINUOUS
 62
          15
100
AcDbLine
 10
13.225166320801
 20
-36.159708023071
 30
0.0
 11
15.624473571777
 21
-36.159708023071
 31
0.0
  0
LINE
  5
3DA
100
AcDbEntity
  8
0
  6
CONTINUOUS
 62
          15
100
AcDbLine
 10
8.725166320801
 20
-36.159708023071
 30
0.0
 11
13.225166320801
 21
-36.159708023071
 31
0.0
  0
LINE
  5
3DB
100
AcDbEntity
  8
0
  6
CONTINUOUS
 62
          15
100
AcDbLine
 10
20.624473571777
 20
-41.159708976746
 30
0.0
 11
22.624473571777
 21
-41.159708976746
 31
0.0
  0
LINE
  5
3DC
100
AcDbEntity
  8
0
  6
CONTINUOUS
 62
          15
100
AcDbLine
 10
13.225166320801
 20
-41.159708976746
 30
0.0
 11
15.624473571777
 21
-41.159708976746
 31
0.0
  0
LINE
  5
3DD
100
AcDbEntity
  8
0
  6
CONTINUOUS
 62
          15
100
AcDbLine
 10
6.475166320801
 20
-41.159708976746
 30
0.0
 11
13.225166320801
 21
-41.159708976746
 31
0.0
  0
LINE
  5
3DE
100
AcDbEntity
  8
0
  6
CONTINUOUS
 62
          15
100
AcDbLine
 10
20.624473571777
 20
-31.159708023071
 30
0.0
 11
20.624473571777
 21
-29.159708023071
 31
0.0
  0
LINE
  5
3DF
100
AcDbEntity
  8
0
  6
CONTINUOUS
 62
          15
100
AcDbLine
 10
20.624473571777
 20
-36.159708023071
 30
0.0
 11
20.624473571777
 21
-34.159708023071
 31
0.0
  0
LINE
  5
3E0
100
AcDbEntity
  8
0
  6
CONTINUOUS
 62
          15
100
AcDbLine
 10
20.624473571777
 20
-41.159708976746
 30
0.0
 11
20.624473571777
 21
-39.159708976746
 31
0.0
  0
LINE
  5
3E1
100
AcDbEntity
  8
0
  6
CONTINUOUS
 62
          15
100
AcDbLine
 10
15.624473571777
 20
-41.159708976746
 30
0.0
 11
21.124473571777
 21
-39.159708976746
 31
0.0
  0
LINE
  5
3E2
100
AcDbEntity
  8
0
  6
CONTINUOUS
 62
          15
100
AcDbLine
 10
15.624473571777
 20
-36.159708023071
 30
0.0
 11
21.124473571777
 21
-34.159708023071
 31
0.0
  0
LINE
  5
3E3
100
AcDbEntity
  8
0
  6
CONTINUOUS
 62
          15
100
AcDbLine
 10
15.624473571777
 20
-31.159708023071
 30
0.0
 11
21.124473571777
 21
-29.159708023071
 31
0.0
  0
LINE
  5
3E4
100
AcDbEntity
  8
0
  6
CONTINUOUS
 62
          15
100
AcDbLine
 10
4.225166320801
 20
-46.159710884094
 30
0.0
 11
24.09952545166
 21
-46.159710884094
 31
0.0
  0
LINE
  5
3E5
100
AcDbEntity
  8
0
  6
CONTINUOUS
 62
          15
100
AcDbLine
 10
-0.024833679199
 20
-21.036575317383
 30
0.0
 11
-0.024833679199
 21
-0.048358917236
 31
0.0
  0
LINE
  5
3E6
100
AcDbEntity
  8
0
  6
CONTINUOUS
 62
          15
100
AcDbLine
 10
15.225166320801
 20
-21.036575317383
 30
0.0
 11
15.225166320801
 21
-0.048358917236
 31
0.0
  0
LINE
  5
3E7
100
AcDbEntity
  8
0
  6
CONTINUOUS
 62
          15
100
AcDbLine
 10
10.975166320801
 20
-31.159708023071
 30
0.0
 11
10.975166320801
 21
-21.036575317383
 31
0.0
  0
LINE
  5
3E8
100
AcDbEntity
  8
0
  6
CONTINUOUS
 62
          15
100
AcDbLine
 10
8.725166320801
 20
-36.159708023071
 30
0.0
 11
8.725166320801
 21
-21.036575317383
 31
0.0
  0
LINE
  5
3E9
100
AcDbEntity
  8
0
  6
CONTINUOUS
 62
          15
100
AcDbLine
 10
6.475166320801
 20
-41.159708976746
 30
0.0
 11
6.475166320801
 21
-21.036575317383
 31
0.0
  0
LINE
  5
3EA
100
AcDbEntity
  8
0
  6
CONTINUOUS
 62
          15
100
AcDbLine
 10
4.225166320801
 20
-46.159710884094
 30
0.0
 11
4.225166320801
 21
-21.036575317383
 31
0.0
  0
LINE
  5
3EB
100
AcDbEntity
  8
0
  6
CONTINUOUS
 62
          15
100
AcDbLine
 10
24.09952545166
 20
-46.159710884094
 30
0.0
 11
24.09952545166
 21
-26.183736801147
 31
0.0
  0
LINE
  5
3EC
100
AcDbEntity
  8
0
  6
CONTINUOUS
 62
          15
100
AcDbLine
 10
22.624473571777
 20
-31.159708023071
 30
0.0
 11
24.09952545166
 21
-31.159708023071
 31
0.0
  0
LINE
  5
3ED
100
AcDbEntity
  8
0
  6
CONTINUOUS
 62
          15
100
AcDbLine
 10
22.624473571777
 20
-36.159708023071
 30
0.0
 11
24.09952545166
 21
-36.159708023071
 31
0.0
  0
LINE
  5
3EE
100
AcDbEntity
  8
0
  6
CONTINUOUS
 62
          15
100
AcDbLine
 10
22.624473571777
 20
-41.159708976746
 30
0.0
 11
24.09952545166
 21
-41.159708976746
 31
0.0
  0
TEXT
  5
3EF
100
AcDbEntity
  8
0
  6
CONTINUOUS
 62
          15
100
AcDbText
 10
3.71923828125
 20
-48.691224291921
 30
0.0
 40
1.350000023842
  1
PRESSURE SWITCHES
 41
1.037037001062
  7
GOTHICI
100
AcDbText
  0
LINE
  5
3F0
100
AcDbEntity
  8
0
  6
CONTINUOUS
 62
          15
100
AcDbLine
 10
-0.024833679199
 20
-0.048358917236
 30
0.0
 11
15.225166320801
 21
-0.048358917236
 31
0.0
  0
TEXT
  5
3F1
100
AcDbEntity
  8
0
  6
CONTINUOUS
 62
          15
100
AcDbText
 10
3.967971801758
 20
-12.780363455415
 30
0.0
 40
2.0
  1
TB4
 41
1.400000035763
  7
ROMANT
100
AcDbText
  0
ENDBLK
  5
3F2
100
AcDbEntity
  8
0
  6
BYBLOCK
 62
           0
100
AcDbBlockEnd
  0
BLOCK
  5
3F3
100
AcDbEntity
  8
0
100
AcDbBlockBegin
  2
TB4C_3
 70
          64
 10
0.0
 20
0.0
 30
0.0
  3
TB4C_3
  1

  0
LINE
  5
3F4
100
AcDbEntity
  8
0
  6
CONTINUOUS
 62
          15
100
AcDbLine
 10
-0.024826049805
 20
-21.036575317383
 30
0.0
 11
15.225173950195
 21
-21.036575317383
 31
0.0
  0
LINE
  5
3F5
100
AcDbEntity
  8
0
  6
CONTINUOUS
 62
          15
100
AcDbLine
 10
20.624481201172
 20
-31.159708023071
 30
0.0
 11
22.624481201172
 21
-31.159708023071
 31
0.0
  0
LINE
  5
3F6
100
AcDbEntity
  8
0
  6
CONTINUOUS
 62
          15
100
AcDbLine
 10
13.225173950195
 20
-31.159708023071
 30
0.0
 11
15.624481201172
 21
-31.159708023071
 31
0.0
  0
LINE
  5
3F7
100
AcDbEntity
  8
0
  6
CONTINUOUS
 62
          15
100
AcDbLine
 10
10.975173950195
 20
-31.159708023071
 30
0.0
 11
13.225173950195
 21
-31.159708023071
 31
0.0
  0
LINE
  5
3F8
100
AcDbEntity
  8
0
  6
CONTINUOUS
 62
          15
100
AcDbLine
 10
20.624481201172
 20
-36.159708023071
 30
0.0
 11
22.624481201172
 21
-36.159708023071
 31
0.0
  0
LINE
  5
3F9
100
AcDbEntity
  8
0
  6
CONTINUOUS
 62
          15
100
AcDbLine
 10
13.225173950195
 20
-36.159708023071
 30
0.0
 11
15.624481201172
 21
-36.159708023071
 31
0.0
  0
LINE
  5
3FA
100
AcDbEntity
  8
0
  6
CONTINUOUS
 62
          15
100
AcDbLine
 10
8.725173950195
 20
-36.159708023071
 30
0.0
 11
13.225173950195
 21
-36.159708023071
 31
0.0
  0
LINE
  5
3FB
100
AcDbEntity
  8
0
  6
CONTINUOUS
 62
          15
100
AcDbLine
 10
20.624481201172
 20
-41.159708976746
 30
0.0
 11
22.624481201172
 21
-41.159708976746
 31
0.0
  0
LINE
  5
3FC
100
AcDbEntity
  8
0
  6
CONTINUOUS
 62
          15
100
AcDbLine
 10
13.225173950195
 20
-41.159708976746
 30
0.0
 11
15.624481201172
 21
-41.159708976746
 31
0.0
  0
LINE
  5
3FD
100
AcDbEntity
  8
0
  6
CONTINUOUS
 62
          15
100
AcDbLine
 10
6.475173950195
 20
-41.159708976746
 30
0.0
 11
13.225173950195
 21
-41.159708976746
 31
0.0
  0
LINE
  5
3FE
100
AcDbEntity
  8
0
  6
CONTINUOUS
 62
          15
100
AcDbLine
 10
20.624481201172
 20
-31.159708023071
 30
0.0
 11
20.624481201172
 21
-29.159708023071
 31
0.0
  0
LINE
  5
3FF
100
AcDbEntity
  8
0
  6
CONTINUOUS
 62
          15
100
AcDbLine
 10
20.624481201172
 20
-36.159708023071
 30
0.0
 11
20.624481201172
 21
-34.159708023071
 31
0.0
  0
LINE
  5
400
100
AcDbEntity
  8
0
  6
CONTINUOUS
 62
          15
100
AcDbLine
 10
20.624481201172
 20
-41.159708976746
 30
0.0
 11
20.624481201172
 21
-39.159708976746
 31
0.0
  0
LINE
  5
401
100
AcDbEntity
  8
0
  6
CONTINUOUS
 62
          15
100
AcDbLine
 10
15.624481201172
 20
-41.159708976746
 30
0.0
 11
21.124481201172
 21
-39.159708976746
 31
0.0
  0
LINE
  5
402
100
AcDbEntity
  8
0
  6
CONTINUOUS
 62
          15
100
AcDbLine
 10
15.624481201172
 20
-36.159708023071
 30
0.0
 11
21.124481201172
 21
-34.159708023071
 31
0.0
  0
LINE
  5
403
100
AcDbEntity
  8
0
  6
CONTINUOUS
 62
          15
100
AcDbLine
 10
15.624481201172
 20
-31.159708023071
 30
0.0
 11
21.124481201172
 21
-29.159708023071
 31
0.0
  0
LINE
  5
404
100
AcDbEntity
  8
0
  6
CONTINUOUS
 62
          15
100
AcDbLine
 10
4.225173950195
 20
-46.159710884094
 30
0.0
 11
24.099533081055
 21
-46.159710884094
 31
0.0
  0
LINE
  5
405
100
AcDbEntity
  8
0
  6
CONTINUOUS
 62
          15
100
AcDbLine
 10
-0.024826049805
 20
-21.036575317383
 30
0.0
 11
-0.024826049805
 21
-0.048358917236
 31
0.0
  0
LINE
  5
406
100
AcDbEntity
  8
0
  6
CONTINUOUS
 62
          15
100
AcDbLine
 10
15.225173950195
 20
-21.036575317383
 30
0.0
 11
15.225173950195
 21
-0.048358917236
 31
0.0
  0
LINE
  5
407
100
AcDbEntity
  8
0
  6
CONTINUOUS
 62
          15
100
AcDbLine
 10
10.975173950195
 20
-31.159708023071
 30
0.0
 11
10.975173950195
 21
-21.036575317383
 31
0.0
  0
LINE
  5
408
100
AcDbEntity
  8
0
  6
CONTINUOUS
 62
          15
100
AcDbLine
 10
8.725173950195
 20
-36.159708023071
 30
0.0
 11
8.725173950195
 21
-21.036575317383
 31
0.0
  0
LINE
  5
409
100
AcDbEntity
  8
0
  6
CONTINUOUS
 62
          15
100
AcDbLine
 10
6.475173950195
 20
-41.159708976746
 30
0.0
 11
6.475173950195
 21
-21.036575317383
 31
0.0
  0
LINE
  5
40A
100
AcDbEntity
  8
0
  6
CONTINUOUS
 62
          15
100
AcDbLine
 10
4.225173950195
 20
-46.159710884094
 30
0.0
 11
4.225173950195
 21
-21.036575317383
 31
0.0
  0
LINE
  5
40B
100
AcDbEntity
  8
0
  6
CONTINUOUS
 62
          15
100
AcDbLine
 10
24.099533081055
 20
-46.159710884094
 30
0.0
 11
24.099533081055
 21
-31.159708023071
 31
0.0
  0
LINE
  5
40C
100
AcDbEntity
  8
0
  6
CONTINUOUS
 62
          15
100
AcDbLine
 10
22.624481201172
 20
-31.159708023071
 30
0.0
 11
24.099533081055
 21
-31.159708023071
 31
0.0
  0
LINE
  5
40D
100
AcDbEntity
  8
0
  6
CONTINUOUS
 62
          15
100
AcDbLine
 10
22.624481201172
 20
-36.159708023071
 30
0.0
 11
24.099533081055
 21
-36.159708023071
 31
0.0
  0
LINE
  5
40E
100
AcDbEntity
  8
0
  6
CONTINUOUS
 62
          15
100
AcDbLine
 10
22.624481201172
 20
-41.159708976746
 30
0.0
 11
24.099533081055
 21
-41.159708976746
 31
0.0
  0
TEXT
  5
40F
100
AcDbEntity
  8
0
  6
CONTINUOUS
 62
          15
100
AcDbText
 10
3.71923828125
 20
-48.691224291921
 30
0.0
 40
1.350000023842
  1
PRESSURE SWITCHES
 41
1.037037001062
  7
GOTHICI
100
AcDbText
  0
LINE
  5
410
100
AcDbEntity
  8
0
  6
CONTINUOUS
 62
          15
100
AcDbLine
 10
-0.024826049805
 20
-0.048358917236
 30
0.0
 11
15.225173950195
 21
-0.048358917236
 31
0.0
  0
TEXT
  5
411
100
AcDbEntity
  8
0
  6
CONTINUOUS
 62
          15
100
AcDbText
 10
3.967987060547
 20
-12.780363455415
 30
0.0
 40
2.0
  1
TB4
 41
1.400000035763
  7
ROMANT
100
AcDbText
  0
ENDBLK
  5
412
100
AcDbEntity
  8
0
  6
BYBLOCK
 62
           0
100
AcDbBlockEnd
  0
BLOCK
  5
413
100
AcDbEntity
  8
0
100
AcDbBlockBegin
  2
SUPPLY_4
 70
          64
 10
0.0
 20
0.0
 30
0.0
  3
SUPPLY_4
  1

  0
TEXT
  5
414
100
AcDbEntity
  8
0
  6
CONTINUOUS
 62
          15
100
AcDbText
 10
15.666514078776
 20
-12.41656289498
 30
0.0
 40
1.0
  1
LIVE
 41
1.000000039736
  7
GOTHICG
100
AcDbText
  0
TEXT
  5
415
100
AcDbEntity
  8
0
  6
CONTINUOUS
 62
          15
100
AcDbText
 10
15.846384684245
 20
-9.897260526816
 30
0.0
 40
1.0
  1
EARTH
 41
1.000000039736
  7
GOTHICG
100
AcDbText
  0
TEXT
  5
416
100
AcDbEntity
  8
0
  6
CONTINUOUS
 62
          15
100
AcDbText
 10
15.666514078776
 20
-7.737857043743
 30
0.0
 40
1.0
  1
NEUTRAL
 41
1.000000039736
  7
GOTHICG
100
AcDbText
  0
LINE
  5
417
100
AcDbEntity
  8
0
  6
CONTINUOUS
 62
          15
100
AcDbLine
 10
2.304016113281
 20
-7.198003133138
 30
0.0
 11
13.730753580729
 21
-7.198003133138
 31
0.0
  0
LINE
  5
418
100
AcDbEntity
  8
0
  6
CONTINUOUS
 62
          15
100
AcDbLine
 10
0.0
 20
-9.537358601888
 30
0.0
 11
13.730753580729
 21
-9.537358601888
 31
0.0
  0
LINE
  5
419
100
AcDbEntity
  8
0
  6
CONTINUOUS
 62
          15
100
AcDbLine
 10
-2.303955078125
 20
-11.876714070638
 30
0.0
 11
13.730753580729
 21
-11.876714070638
 31
0.0
  0
LINE
  5
41A
100
AcDbEntity
  8
0
  6
CONTINUOUS
 62
          15
100
AcDbLine
 10
2.304016113281
 20
-7.198003133138
 30
0.0
 11
2.304016113281
 21
0.0
 31
0.0
  0
LINE
  5
41B
100
AcDbEntity
  8
0
  6
CONTINUOUS
 62
          15
100
AcDbLine
 10
0.0
 20
-9.537358601888
 30
0.0
 11
0.0
 21
0.0
 31
0.0
  0
LINE
  5
41C
100
AcDbEntity
  8
0
  6
CONTINUOUS
 62
          15
100
AcDbLine
 10
-2.303955078125
 20
-11.876714070638
 30
0.0
 11
-2.303955078125
 21
0.0
 31
0.0
  0
ENDBLK
  5
41D
100
AcDbEntity
  8
0
  6
BYBLOCK
 62
           0
100
AcDbBlockEnd
  0
BLOCK
  5
41E
100
AcDbEntity
  8
0
100
AcDbBlockBegin
  2
RES_5
 70
          64
 10
0.0
 20
0.0
 30
0.0
  3
RES_5
  1

  0
LINE
  5
41F
100
AcDbEntity
  8
0
  6
CONTINUOUS
 62
          15
100
AcDbLine
 10
0.0
 20
-9.425308227539
 30
0.0
 11
0.0
 21
-8.25341796875
 31
0.0
  0
LINE
  5
420
100
AcDbEntity
  8
0
  6
CONTINUOUS
 62
          15
100
AcDbLine
 10
-1.0
 20
-7.75341796875
 30
0.0
 11
-1.0
 21
-2.93440246582
 31
0.0
  0
LINE
  5
421
100
AcDbEntity
  8
0
  6
CONTINUOUS
 62
          15
100
AcDbLine
 10
1.0
 20
-7.75341796875
 30
0.0
 11
1.0
 21
-2.93440246582
 31
0.0
  0
LINE
  5
422
100
AcDbEntity
  8
0
  6
CONTINUOUS
 62
          15
100
AcDbLine
 10
-0.5
 20
-2.43440246582
 30
0.0
 11
0.5
 21
-2.43440246582
 31
0.0
  0
LINE
  5
423
100
AcDbEntity
  8
0
  6
CONTINUOUS
 62
          15
100
AcDbLine
 10
-0.5
 20
-8.25341796875
 30
0.0
 11
0.5
 21
-8.25341796875
 31
0.0
  0
LINE
  5
424
100
AcDbEntity
  8
0
  6
CONTINUOUS
 62
          15
100
AcDbLine
 10
-6.671447753906
 20
-9.425308227539
 30
0.0
 11
0.0
 21
-9.425308227539
 31
0.0
  0
LINE
  5
425
100
AcDbEntity
  8
0
  6
CONTINUOUS
 62
          15
100
AcDbLine
 10
-1.0
 20
-3.96997833252
 30
0.0
 11
1.0
 21
-3.96997833252
 31
0.0
  0
LINE
  5
426
100
AcDbEntity
  8
0
  6
CONTINUOUS
 62
          15
100
AcDbLine
 10
-1.0
 20
-4.858993530273
 30
0.0
 11
1.0
 21
-4.858993530273
 31
0.0
  0
LINE
  5
427
100
AcDbEntity
  8
0
  6
CONTINUOUS
 62
          15
100
AcDbLine
 10
-1.0
 20
-5.70760345459
 30
0.0
 11
1.0
 21
-5.70760345459
 31
0.0
  0
LINE
  5
428
100
AcDbEntity
  8
0
  6
CONTINUOUS
 62
          15
100
AcDbLine
 10
-1.0
 20
-6.596618652344
 30
0.0
 11
1.0
 21
-6.596618652344
 31
0.0
  0
ARC
  5
429
100
AcDbEntity
  8
0
  6
CONTINUOUS
 62
          15
100
AcDbCircle
 10
-0.5
 20
-2.93440246582
 30
0.0
 40
0.5
100
AcDbArc
 50
90.000002504478
 51
180.000008651422
  0
ARC
  5
42A
100
AcDbEntity
  8
0
  6
CONTINUOUS
 62
          15
100
AcDbCircle
 10
0.5
 20
-2.93440246582
 30
0.0
 40
0.5
100
AcDbArc
 50
0.0
 51
90.000002504478
  0
ARC
  5
42B
100
AcDbEntity
  8
0
  6
CONTINUOUS
 62
          15
100
AcDbCircle
 10
0.5
 20
-7.75341796875
 30
0.0
 40
0.5
100
AcDbArc
 50
269.999997495521
 51
0.0
  0
ARC
  5
42C
100
AcDbEntity
  8
0
  6
CONTINUOUS
 62
          15
100
AcDbCircle
 10
-0.5
 20
-7.75341796875
 30
0.0
 40
0.5
100
AcDbArc
 50
180.000008651422
 51
269.999997495521
  0
LINE
  5
42D
100
AcDbEntity
  8
0
  6
CONTINUOUS
 62
          15
100
AcDbLine
 10
0.0
 20
1.512351989746
 30
0.0
 11
0.0
 21
13.192726135254
 31
0.0
  0
LINE
  5
42E
100
AcDbEntity
  8
0
  6
CONTINUOUS
 62
          15
100
AcDbLine
 10
0.0
 20
-2.43440246582
 30
0.0
 11
0.0
 21
1.512351989746
 31
0.0
  0
ENDBLK
  5
42F
100
AcDbEntity
  8
0
  6
BYBLOCK
 62
           0
100
AcDbBlockEnd
  0
BLOCK
  5
430
100
AcDbEntity
  8
0
100
AcDbBlockBegin
  2
SATERM_6
 70
          64
 10
0.0
 20
0.0
 30
0.0
  3
SATERM_6
  1

  0
LINE
  5
431
100
AcDbEntity
  8
0
  6
CONTINUOUS
 62
          15
100
AcDbLine
 10
-14.320653915405
 20
-1.701705932617
 30
0.0
 11
-14.320653915405
 21
15.428283691406
 31
0.0
  0
LINE
  5
432
100
AcDbEntity
  8
0
  6
CONTINUOUS
 62
          15
100
AcDbLine
 10
-14.320653915405
 20
15.428283691406
 30
0.0
 11
18.948917388916
 21
15.428283691406
 31
0.0
  0
LINE
  5
433
100
AcDbEntity
  8
0
  6
CONTINUOUS
 62
          15
100
AcDbLine
 10
14.089706420898
 20
0.762451171875
 30
0.0
 11
17.809825897217
 21
0.762451171875
 31
0.0
  0
LINE
  5
434
100
AcDbEntity
  8
0
  6
CONTINUOUS
 62
          15
100
AcDbLine
 10
14.089706420898
 20
0.762451171875
 30
0.0
 11
14.089706420898
 21
-1.461074829102
 31
0.0
  0
LINE
  5
435
100
AcDbEntity
  8
0
  6
CONTINUOUS
 62
          15
100
AcDbLine
 10
10.226364135742
 20
12.501068115234
 30
0.0
 11
21.306751251221
 21
12.501068115234
 31
0.0
  0
LINE
  5
436
100
AcDbEntity
  8
0
  6
CONTINUOUS
 62
          15
100
AcDbLine
 10
10.226364135742
 20
12.501068115234
 30
0.0
 11
10.226364135742
 21
-2.929977416992
 31
0.0
  0
ELLIPSE
  5
437
100
AcDbEntity
  8
0
  6
CONTINUOUS
 62
          15
100
AcDbEllipse
 10
-0.37882232666
 20
8.571105957031
 30
0.0
 11
22.749999999999996
 21
0.0
 31
0.0
210
0.0
220
0.0
230
1.0
 40
0.571428571429
 41
0.0
 42
6.2831853071795862
  0
LINE
  5
438
100
AcDbEntity
  8
0
  6
CONTINUOUS
 62
          15
100
AcDbLine
 10
1.956241607666
 20
7.754592895508
 30
0.0
 11
1.956241607666
 21
16.399612426758
 31
0.0
  0
ENDBLK
  5
439
100
AcDbEntity
  8
0
  6
BYBLOCK
 62
           0
100
AcDbBlockEnd
  0
BLOCK
  5
43A
100
AcDbEntity
  8
0
100
AcDbBlockBegin
  2
SA_7
 70
          64
 10
0.0
 20
0.0
 30
0.0
  3
SA_7
  1

  0
LINE
  5
43B
100
AcDbEntity
  8
0
  6
CONTINUOUS
 62
          15
100
AcDbLine
 10
-23.587493896484
 20
0.0
 30
0.0
 11
-23.587493896484
 21
31.049987792969
 31
0.0
  0
LINE
  5
43C
100
AcDbEntity
  8
0
  6
CONTINUOUS
 62
          15
100
AcDbLine
 10
23.587501525879
 20
0.0
 30
0.0
 11
23.587501525879
 21
31.049987792969
 31
0.0
  0
LINE
  5
43D
100
AcDbEntity
  8
0
  6
CONTINUOUS
 62
          15
100
AcDbLine
 10
22.837501525879
 20
1.349990844727
 30
0.0
 11
22.837501525879
 21
29.699996948242
 31
0.0
  0
LINE
  5
43E
100
AcDbEntity
  8
0
  6
CONTINUOUS
 62
          15
100
AcDbLine
 10
-22.837493896484
 20
1.349990844727
 30
0.0
 11
-22.837493896484
 21
29.699996948242
 31
0.0
  0
LINE
  5
43F
100
AcDbEntity
  8
0
  6
CONTINUOUS
 62
          15
100
AcDbLine
 10
-22.387496948242
 20
30.149993896484
 30
0.0
 11
22.387504577637
 21
30.149993896484
 31
0.0
  0
LINE
  5
440
100
AcDbEntity
  8
0
  6
CONTINUOUS
 62
          15
100
AcDbLine
 10
-22.387496948242
 20
0.899993896484
 30
0.0
 11
22.387504577637
 21
0.899993896484
 31
0.0
  0
LINE
  5
441
100
AcDbEntity
  8
0
  6
CONTINUOUS
 62
          15
100
AcDbLine
 10
-23.587493896484
 20
31.049987792969
 30
0.0
 11
23.587501525879
 21
31.049987792969
 31
0.0
  0
LINE
  5
442
100
AcDbEntity
  8
0
  6
CONTINUOUS
 62
          15
100
AcDbLine
 10
-23.587493896484
 20
0.0
 30
0.0
 11
23.587501525879
 21
0.0
 31
0.0
  0
LINE
  5
443
100
AcDbEntity
  8
0
  6
CONTINUOUS
 62
          15
100
AcDbLine
 10
-20.624992370605
 20
3.149993896484
 30
0.0
 11
-20.624992370605
 21
27.899993896484
 31
0.0
  0
LINE
  5
444
100
AcDbEntity
  8
0
  6
CONTINUOUS
 62
          15
100
AcDbLine
 10
20.625
 20
3.149993896484
 30
0.0
 11
20.625
 21
27.899993896484
 31
0.0
  0
LINE
  5
445
100
AcDbEntity
  8
0
  6
CONTINUOUS
 62
          15
100
AcDbLine
 10
-20.624992370605
 20
27.899993896484
 30
0.0
 11
20.625
 21
27.899993896484
 31
0.0
  0
LINE
  5
446
100
AcDbEntity
  8
0
  6
CONTINUOUS
 62
          15
100
AcDbLine
 10
-20.624992370605
 20
3.149993896484
 30
0.0
 11
20.625
 21
3.149993896484
 31
0.0
  0
LINE
  5
447
100
AcDbEntity
  8
0
  6
CONTINUOUS
 62
          15
100
AcDbLine
 10
-17.849990844727
 20
26.474990844727
 30
0.0
 11
17.850006103516
 21
26.474990844727
 31
0.0
  0
LINE
  5
448
100
AcDbEntity
  8
0
  6
CONTINUOUS
 62
          15
100
AcDbLine
 10
-17.849990844727
 20
23.699996948242
 30
0.0
 11
17.850006103516
 21
23.699996948242
 31
0.0
  0
LINE
  5
449
100
AcDbEntity
  8
0
  6
CONTINUOUS
 62
          15
100
AcDbLine
 10
-18.299995422363
 20
22.724990844727
 30
0.0
 11
18.300003051758
 21
22.724990844727
 31
0.0
  0
LINE
  5
44A
100
AcDbEntity
  8
0
  6
CONTINUOUS
 62
          15
100
AcDbLine
 10
-18.299995422363
 20
12.074996948242
 30
0.0
 11
18.300003051758
 21
12.074996948242
 31
0.0
  0
LINE
  5
44B
100
AcDbEntity
  8
0
  6
CONTINUOUS
 62
          15
100
AcDbLine
 10
-10.049995422363
 20
10.949996948242
 30
0.0
 11
17.850006103516
 21
10.949996948242
 31
0.0
  0
LINE
  5
44C
100
AcDbEntity
  8
0
  6
CONTINUOUS
 62
          15
100
AcDbLine
 10
-11.849990844727
 20
10.949996948242
 30
0.0
 11
-10.049995422363
 21
10.949996948242
 31
0.0
  0
LINE
  5
44D
100
AcDbEntity
  8
0
  6
CONTINUOUS
 62
          15
100
AcDbLine
 10
-17.849990844727
 20
10.949996948242
 30
0.0
 11
-11.849990844727
 21
10.949996948242
 31
0.0
  0
LINE
  5
44E
100
AcDbEntity
  8
0
  6
CONTINUOUS
 62
          15
100
AcDbLine
 10
-17.849990844727
 20
4.199996948242
 30
0.0
 11
17.850006103516
 21
4.199996948242
 31
0.0
  0
LINE
  5
44F
100
AcDbEntity
  8
0
  6
CONTINUOUS
 62
          15
100
AcDbLine
 10
-18.599990844727
 20
24.449996948242
 30
0.0
 11
-18.599990844727
 21
25.724990844727
 31
0.0
  0
LINE
  5
450
100
AcDbEntity
  8
0
  6
CONTINUOUS
 62
          15
100
AcDbLine
 10
-18.599990844727
 20
12.375
 30
0.0
 11
-18.599990844727
 21
22.424987792969
 31
0.0
  0
LINE
  5
451
100
AcDbEntity
  8
0
  6
CONTINUOUS
 62
          15
100
AcDbLine
 10
-18.599990844727
 20
4.949996948242
 30
0.0
 11
-18.599990844727
 21
10.199996948242
 31
0.0
  0
LINE
  5
452
100
AcDbEntity
  8
0
  6
CONTINUOUS
 62
          15
100
AcDbLine
 10
18.600006103516
 20
24.449996948242
 30
0.0
 11
18.600006103516
 21
25.724990844727
 31
0.0
  0
ARC
  5
453
100
AcDbEntity
  8
0
  6
CONTINUOUS
 62
          15
100
AcDbCircle
 10
-17.849990844727
 20
25.724990844727
 30
0.0
 40
0.75
100
AcDbArc
 50
90.000002504478
 51
180.000008651422
  0
ARC
  5
454
100
AcDbEntity
  8
0
  6
CONTINUOUS
 62
          15
100
AcDbCircle
 10
-17.849990844727
 20
24.449996948242
 30
0.0
 40
0.75
100
AcDbArc
 50
180.000008651422
 51
269.999997495521
  0
ARC
  5
455
100
AcDbEntity
  8
0
  6
CONTINUOUS
 62
          15
100
AcDbCircle
 10
17.850006103516
 20
24.449996948242
 30
0.0
 40
0.75
100
AcDbArc
 50
269.999997495521
 51
0.0
  0
ARC
  5
456
100
AcDbEntity
  8
0
  6
CONTINUOUS
 62
          15
100
AcDbCircle
 10
17.850006103516
 20
25.724990844727
 30
0.0
 40
0.75
100
AcDbArc
 50
0.0
 51
90.000002504478
  0
ARC
  5
457
100
AcDbEntity
  8
0
  6
CONTINUOUS
 62
          15
100
AcDbCircle
 10
17.850006103516
 20
10.199996948242
 30
0.0
 40
0.75
100
AcDbArc
 50
0.0
 51
90.000002504478
  0
ARC
  5
458
100
AcDbEntity
  8
0
  6
CONTINUOUS
 62
          15
100
AcDbCircle
 10
17.850006103516
 20
4.949996948242
 30
0.0
 40
0.75
100
AcDbArc
 50
269.999997495521
 51
0.0
  0
ARC
  5
459
100
AcDbEntity
  8
0
  6
CONTINUOUS
 62
          15
100
AcDbCircle
 10
-17.849990844727
 20
4.949996948242
 30
0.0
 40
0.75
100
AcDbArc
 50
180.000008651422
 51
269.999997495521
  0
ARC
  5
45A
100
AcDbEntity
  8
0
  6
CONTINUOUS
 62
          15
100
AcDbCircle
 10
-17.849990844727
 20
10.199996948242
 30
0.0
 40
0.75
100
AcDbArc
 50
90.000002504478
 51
180.000008651422
  0
ARC
  5
45B
100
AcDbEntity
  8
0
  6
CONTINUOUS
 62
          15
100
AcDbCircle
 10
-18.299995422363
 20
22.424987792969
 30
0.0
 40
0.300000011921
100
AcDbArc
 50
90.000002504478
 51
180.000008651422
  0
ARC
  5
45C
100
AcDbEntity
  8
0
  6
CONTINUOUS
 62
          15
100
AcDbCircle
 10
18.300003051758
 20
22.424987792969
 30
0.0
 40
0.300000011921
100
AcDbArc
 50
0.0
 51
90.000002504478
  0
ARC
  5
45D
100
AcDbEntity
  8
0
  6
CONTINUOUS
 62
          15
100
AcDbCircle
 10
18.300003051758
 20
12.375
 30
0.0
 40
0.300000011921
100
AcDbArc
 50
269.999997495521
 51
0.0
  0
ARC
  5
45E
100
AcDbEntity
  8
0
  6
CONTINUOUS
 62
          15
100
AcDbCircle
 10
-18.299995422363
 20
12.375
 30
0.0
 40
0.300000011921
100
AcDbArc
 50
180.000008651422
 51
269.999997495521
  0
LINE
  5
45F
100
AcDbEntity
  8
0
  6
CONTINUOUS
 62
          15
100
AcDbLine
 10
-13.349990844727
 20
7.649993896484
 30
0.0
 11
-13.349990844727
 21
9.449996948242
 31
0.0
  0
LINE
  5
460
100
AcDbEntity
  8
0
  6
CONTINUOUS
 62
          15
100
AcDbLine
 10
-8.549995422363
 20
7.649993896484
 30
0.0
 11
-8.549995422363
 21
9.449996948242
 31
0.0
  0
LINE
  5
461
100
AcDbEntity
  8
0
  6
CONTINUOUS
 62
          15
100
AcDbLine
 10
-11.849990844727
 20
6.149993896484
 30
0.0
 11
-10.049995422363
 21
6.149993896484
 31
0.0
  0
LINE
  5
462
100
AcDbEntity
  8
0
  6
CONTINUOUS
 62
          15
100
AcDbLine
 10
1.200012207031
 20
10.5
 30
0.0
 11
12.600006103516
 21
10.5
 31
0.0
  0
LINE
  5
463
100
AcDbEntity
  8
0
  6
CONTINUOUS
 62
          15
100
AcDbLine
 10
1.5
 20
4.799987792969
 30
0.0
 11
12.600006103516
 21
4.799987792969
 31
0.0
  0
LINE
  5
464
100
AcDbEntity
  8
0
  6
CONTINUOUS
 62
          15
100
AcDbLine
 10
12.900009155273
 20
5.099990844727
 30
0.0
 11
12.900009155273
 21
10.199996948242
 31
0.0
  0
LINE
  5
465
100
AcDbEntity
  8
0
  6
CONTINUOUS
 62
          15
100
AcDbLine
 10
1.200012207031
 20
5.099990844727
 30
0.0
 11
1.200012207031
 21
10.199996948242
 31
0.0
  0
ARC
  5
466
100
AcDbEntity
  8
0
  6
CONTINUOUS
 62
          15
100
AcDbCircle
 10
1.5
 20
10.199996948242
 30
0.0
 40
0.300000011921
100
AcDbArc
 50
90.000002504478
 51
180.000008651422
  0
ARC
  5
467
100
AcDbEntity
  8
0
  6
CONTINUOUS
 62
          15
100
AcDbCircle
 10
1.5
 20
5.099990844727
 30
0.0
 40
0.300000011921
100
AcDbArc
 50
180.000008651422
 51
269.999997495521
  0
ARC
  5
468
100
AcDbEntity
  8
0
  6
CONTINUOUS
 62
          15
100
AcDbCircle
 10
12.600006103516
 20
5.099990844727
 30
0.0
 40
0.300000011921
100
AcDbArc
 50
269.999997495521
 51
0.0
  0
ARC
  5
469
100
AcDbEntity
  8
0
  6
CONTINUOUS
 62
          15
100
AcDbCircle
 10
12.600006103516
 20
10.199996948242
 30
0.0
 40
0.300000011921
100
AcDbArc
 50
0.0
 51
90.000002504478
  0
ARC
  5
46A
100
AcDbEntity
  8
0
  6
CONTINUOUS
 62
          15
100
AcDbCircle
 10
-10.049995422363
 20
7.649993896484
 30
0.0
 40
1.5
100
AcDbArc
 50
269.999997495521
 51
0.0
  0
ARC
  5
46B
100
AcDbEntity
  8
0
  6
CONTINUOUS
 62
          15
100
AcDbCircle
 10
-11.849990844727
 20
7.649993896484
 30
0.0
 40
1.5
100
AcDbArc
 50
180.000008651422
 51
269.999997495521
  0
ARC
  5
46C
100
AcDbEntity
  8
0
  6
CONTINUOUS
 62
          15
100
AcDbCircle
 10
-10.049995422363
 20
9.449996948242
 30
0.0
 40
1.5
100
AcDbArc
 50
0.0
 51
90.000002504478
  0
ARC
  5
46D
100
AcDbEntity
  8
0
  6
CONTINUOUS
 62
          15
100
AcDbCircle
 10
-11.849990844727
 20
9.449996948242
 30
0.0
 40
1.5
100
AcDbArc
 50
90.000002504478
 51
180.000008651422
  0
TEXT
  5
46E
100
AcDbEntity
  8
0
  6
CONTINUOUS
 62
          15
100
AcDbText
 10
-10.713287353516
 20
24.367144793272
 30
0.0
 40
1.5
  1
MEDICAL GAS ALARM
 41
0.933333337307
  7
ROMAND
100
AcDbText
  0
LINE
  5
46F
100
AcDbEntity
  8
0
  6
CONTINUOUS
 62
          15
100
AcDbLine
 10
-17.549995422363
 20
14.024993896484
 30
0.0
 11
-17.549995422363
 21
21.524993896484
 31
0.0
  0
LINE
  5
470
100
AcDbEntity
  8
0
  6
CONTINUOUS
 62
          15
100
AcDbLine
 10
-13.649993896484
 20
14.024993896484
 30
0.0
 11
-13.649993896484
 21
21.524993896484
 31
0.0
  0
LINE
  5
471
100
AcDbEntity
  8
0
  6
CONTINUOUS
 62
          15
100
AcDbLine
 10
-17.249992370605
 20
21.824996948242
 30
0.0
 11
-13.949996948242
 21
21.824996948242
 31
0.0
  0
LINE
  5
472
100
AcDbEntity
  8
0
  6
CONTINUOUS
 62
          15
100
AcDbLine
 10
-17.249992370605
 20
13.724990844727
 30
0.0
 11
-13.949996948242
 21
13.724990844727
 31
0.0
  0
ARC
  5
473
100
AcDbEntity
  8
0
  6
CONTINUOUS
 62
          15
100
AcDbCircle
 10
-17.249992370605
 20
21.524993896484
 30
0.0
 40
0.300000011921
100
AcDbArc
 50
90.000002504478
 51
180.000008651422
  0
ARC
  5
474
100
AcDbEntity
  8
0
  6
CONTINUOUS
 62
          15
100
AcDbCircle
 10
-13.949996948242
 20
21.524993896484
 30
0.0
 40
0.300000011921
100
AcDbArc
 50
0.0
 51
90.000002504478
  0
ARC
  5
475
100
AcDbEntity
  8
0
  6
CONTINUOUS
 62
          15
100
AcDbCircle
 10
-13.949996948242
 20
14.024993896484
 30
0.0
 40
0.300000011921
100
AcDbArc
 50
269.999997495521
 51
0.0
  0
ARC
  5
476
100
AcDbEntity
  8
0
  6
CONTINUOUS
 62
          15
100
AcDbCircle
 10
-17.249992370605
 20
14.024993896484
 30
0.0
 40
0.300000011921
100
AcDbArc
 50
180.000008651422
 51
269.999997495521
  0
LINE
  5
477
100
AcDbEntity
  8
0
  6
CONTINUOUS
 62
          15
100
AcDbLine
 10
-12.299995422363
 20
14.024993896484
 30
0.0
 11
-12.299995422363
 21
21.524993896484
 31
0.0
  0
LINE
  5
478
100
AcDbEntity
  8
0
  6
CONTINUOUS
 62
          15
100
AcDbLine
 10
-8.399993896484
 20
14.024993896484
 30
0.0
 11
-8.399993896484
 21
21.524993896484
 31
0.0
  0
LINE
  5
479
100
AcDbEntity
  8
0
  6
CONTINUOUS
 62
          15
100
AcDbLine
 10
-11.999992370605
 20
21.824996948242
 30
0.0
 11
-8.699996948242
 21
21.824996948242
 31
0.0
  0
LINE
  5
47A
100
AcDbEntity
  8
0
  6
CONTINUOUS
 62
          15
100
AcDbLine
 10
-11.999992370605
 20
13.724990844727
 30
0.0
 11
-8.699996948242
 21
13.724990844727
 31
0.0
  0
ARC
  5
47B
100
AcDbEntity
  8
0
  6
CONTINUOUS
 62
          15
100
AcDbCircle
 10
-11.999992370605
 20
21.524993896484
 30
0.0
 40
0.300000011921
100
AcDbArc
 50
90.000002504478
 51
180.000008651422
  0
ARC
  5
47C
100
AcDbEntity
  8
0
  6
CONTINUOUS
 62
          15
100
AcDbCircle
 10
-8.699996948242
 20
21.524993896484
 30
0.0
 40
0.300000011921
100
AcDbArc
 50
0.0
 51
90.000002504478
  0
ARC
  5
47D
100
AcDbEntity
  8
0
  6
CONTINUOUS
 62
          15
100
AcDbCircle
 10
-8.699996948242
 20
14.024993896484
 30
0.0
 40
0.300000011921
100
AcDbArc
 50
269.999997495521
 51
0.0
  0
ARC
  5
47E
100
AcDbEntity
  8
0
  6
CONTINUOUS
 62
          15
100
AcDbCircle
 10
-11.999992370605
 20
14.024993896484
 30
0.0
 40
0.300000011921
100
AcDbArc
 50
180.000008651422
 51
269.999997495521
  0
LINE
  5
47F
100
AcDbEntity
  8
0
  6
CONTINUOUS
 62
          15
100
AcDbLine
 10
-7.049995422363
 20
14.024993896484
 30
0.0
 11
-7.049995422363
 21
21.524993896484
 31
0.0
  0
LINE
  5
480
100
AcDbEntity
  8
0
  6
CONTINUOUS
 62
          15
100
AcDbLine
 10
-3.149993896484
 20
14.024993896484
 30
0.0
 11
-3.149993896484
 21
21.524993896484
 31
0.0
  0
LINE
  5
481
100
AcDbEntity
  8
0
  6
CONTINUOUS
 62
          15
100
AcDbLine
 10
-6.749992370605
 20
21.824996948242
 30
0.0
 11
-3.449996948242
 21
21.824996948242
 31
0.0
  0
LINE
  5
482
100
AcDbEntity
  8
0
  6
CONTINUOUS
 62
          15
100
AcDbLine
 10
-6.749992370605
 20
13.724990844727
 30
0.0
 11
-3.449996948242
 21
13.724990844727
 31
0.0
  0
ARC
  5
483
100
AcDbEntity
  8
0
  6
CONTINUOUS
 62
          15
100
AcDbCircle
 10
-6.749992370605
 20
21.524993896484
 30
0.0
 40
0.300000011921
100
AcDbArc
 50
90.000002504478
 51
180.000008651422
  0
ARC
  5
484
100
AcDbEntity
  8
0
  6
CONTINUOUS
 62
          15
100
AcDbCircle
 10
-3.449996948242
 20
21.524993896484
 30
0.0
 40
0.300000011921
100
AcDbArc
 50
0.0
 51
90.000002504478
  0
ARC
  5
485
100
AcDbEntity
  8
0
  6
CONTINUOUS
 62
          15
100
AcDbCircle
 10
-3.449996948242
 20
14.024993896484
 30
0.0
 40
0.300000011921
100
AcDbArc
 50
269.999997495521
 51
0.0
  0
ARC
  5
486
100
AcDbEntity
  8
0
  6
CONTINUOUS
 62
          15
100
AcDbCircle
 10
-6.749992370605
 20
14.024993896484
 30
0.0
 40
0.300000011921
100
AcDbArc
 50
180.000008651422
 51
269.999997495521
  0
LINE
  5
487
100
AcDbEntity
  8
0
  6
CONTINUOUS
 62
          15
100
AcDbLine
 10
-1.799995422363
 20
14.024993896484
 30
0.0
 11
-1.799995422363
 21
21.524993896484
 31
0.0
  0
LINE
  5
488
100
AcDbEntity
  8
0
  6
CONTINUOUS
 62
          15
100
AcDbLine
 10
2.100006103516
 20
14.024993896484
 30
0.0
 11
2.100006103516
 21
21.524993896484
 31
0.0
  0
LINE
  5
489
100
AcDbEntity
  8
0
  6
CONTINUOUS
 62
          15
100
AcDbLine
 10
-1.499992370605
 20
21.824996948242
 30
0.0
 11
1.800003051758
 21
21.824996948242
 31
0.0
  0
LINE
  5
48A
100
AcDbEntity
  8
0
  6
CONTINUOUS
 62
          15
100
AcDbLine
 10
-1.499992370605
 20
13.724990844727
 30
0.0
 11
1.800003051758
 21
13.724990844727
 31
0.0
  0
ARC
  5
48B
100
AcDbEntity
  8
0
  6
CONTINUOUS
 62
          15
100
AcDbCircle
 10
-1.499992370605
 20
21.524993896484
 30
0.0
 40
0.300000011921
100
AcDbArc
 50
90.000002504478
 51
180.000008651422
  0
ARC
  5
48C
100
AcDbEntity
  8
0
  6
CONTINUOUS
 62
          15
100
AcDbCircle
 10
1.800003051758
 20
21.524993896484
 30
0.0
 40
0.300000011921
100
AcDbArc
 50
0.0
 51
90.000002504478
  0
ARC
  5
48D
100
AcDbEntity
  8
0
  6
CONTINUOUS
 62
          15
100
AcDbCircle
 10
1.800003051758
 20
14.024993896484
 30
0.0
 40
0.300000011921
100
AcDbArc
 50
269.999997495521
 51
0.0
  0
ARC
  5
48E
100
AcDbEntity
  8
0
  6
CONTINUOUS
 62
          15
100
AcDbCircle
 10
-1.499992370605
 20
14.024993896484
 30
0.0
 40
0.300000011921
100
AcDbArc
 50
180.000008651422
 51
269.999997495521
  0
LINE
  5
48F
100
AcDbEntity
  8
0
  6
CONTINUOUS
 62
          15
100
AcDbLine
 10
3.450012207031
 20
14.024993896484
 30
0.0
 11
3.450012207031
 21
21.524993896484
 31
0.0
  0
LINE
  5
490
100
AcDbEntity
  8
0
  6
CONTINUOUS
 62
          15
100
AcDbLine
 10
7.350006103516
 20
14.024993896484
 30
0.0
 11
7.350006103516
 21
21.524993896484
 31
0.0
  0
LINE
  5
491
100
AcDbEntity
  8
0
  6
CONTINUOUS
 62
          15
100
AcDbLine
 10
3.75
 20
21.824996948242
 30
0.0
 11
7.050003051758
 21
21.824996948242
 31
0.0
  0
LINE
  5
492
100
AcDbEntity
  8
0
  6
CONTINUOUS
 62
          15
100
AcDbLine
 10
3.75
 20
13.724990844727
 30
0.0
 11
7.050003051758
 21
13.724990844727
 31
0.0
  0
ARC
  5
493
100
AcDbEntity
  8
0
  6
CONTINUOUS
 62
          15
100
AcDbCircle
 10
3.75
 20
21.524993896484
 30
0.0
 40
0.300000011921
100
AcDbArc
 50
90.000002504478
 51
180.000008651422
  0
ARC
  5
494
100
AcDbEntity
  8
0
  6
CONTINUOUS
 62
          15
100
AcDbCircle
 10
7.050003051758
 20
21.524993896484
 30
0.0
 40
0.300000011921
100
AcDbArc
 50
0.0
 51
90.000002504478
  0
ARC
  5
495
100
AcDbEntity
  8
0
  6
CONTINUOUS
 62
          15
100
AcDbCircle
 10
7.050003051758
 20
14.024993896484
 30
0.0
 40
0.300000011921
100
AcDbArc
 50
269.999997495521
 51
0.0
  0
ARC
  5
496
100
AcDbEntity
  8
0
  6
CONTINUOUS
 62
          15
100
AcDbCircle
 10
3.75
 20
14.024993896484
 30
0.0
 40
0.300000011921
100
AcDbArc
 50
180.000008651422
 51
269.999997495521
  0
LINE
  5
497
100
AcDbEntity
  8
0
  6
CONTINUOUS
 62
          15
100
AcDbLine
 10
8.700012207031
 20
14.024993896484
 30
0.0
 11
8.700012207031
 21
21.524993896484
 31
0.0
  0
LINE
  5
498
100
AcDbEntity
  8
0
  6
CONTINUOUS
 62
          15
100
AcDbLine
 10
12.600006103516
 20
14.024993896484
 30
0.0
 11
12.600006103516
 21
21.524993896484
 31
0.0
  0
LINE
  5
499
100
AcDbEntity
  8
0
  6
CONTINUOUS
 62
          15
100
AcDbLine
 10
9.0
 20
21.824996948242
 30
0.0
 11
12.300003051758
 21
21.824996948242
 31
0.0
  0
LINE
  5
49A
100
AcDbEntity
  8
0
  6
CONTINUOUS
 62
          15
100
AcDbLine
 10
9.0
 20
13.724990844727
 30
0.0
 11
12.300003051758
 21
13.724990844727
 31
0.0
  0
ARC
  5
49B
100
AcDbEntity
  8
0
  6
CONTINUOUS
 62
          15
100
AcDbCircle
 10
9.0
 20
21.524993896484
 30
0.0
 40
0.300000011921
100
AcDbArc
 50
90.000002504478
 51
180.000008651422
  0
ARC
  5
49C
100
AcDbEntity
  8
0
  6
CONTINUOUS
 62
          15
100
AcDbCircle
 10
12.300003051758
 20
21.524993896484
 30
0.0
 40
0.300000011921
100
AcDbArc
 50
0.0
 51
90.000002504478
  0
ARC
  5
49D
100
AcDbEntity
  8
0
  6
CONTINUOUS
 62
          15
100
AcDbCircle
 10
12.300003051758
 20
14.024993896484
 30
0.0
 40
0.300000011921
100
AcDbArc
 50
269.999997495521
 51
0.0
  0
ARC
  5
49E
100
AcDbEntity
  8
0
  6
CONTINUOUS
 62
          15
100
AcDbCircle
 10
9.0
 20
14.024993896484
 30
0.0
 40
0.300000011921
100
AcDbArc
 50
180.000008651422
 51
269.999997495521
  0
LINE
  5
49F
100
AcDbEntity
  8
0
  6
CONTINUOUS
 62
          15
100
AcDbLine
 10
13.950012207031
 20
14.024993896484
 30
0.0
 11
13.950012207031
 21
21.524993896484
 31
0.0
  0
LINE
  5
4A0
100
AcDbEntity
  8
0
  6
CONTINUOUS
 62
          15
100
AcDbLine
 10
17.850006103516
 20
14.024993896484
 30
0.0
 11
17.850006103516
 21
21.524993896484
 31
0.0
  0
LINE
  5
4A1
100
AcDbEntity
  8
0
  6
CONTINUOUS
 62
          15
100
AcDbLine
 10
14.25
 20
21.824996948242
 30
0.0
 11
17.550003051758
 21
21.824996948242
 31
0.0
  0
LINE
  5
4A2
100
AcDbEntity
  8
0
  6
CONTINUOUS
 62
          15
100
AcDbLine
 10
14.25
 20
13.724990844727
 30
0.0
 11
17.550003051758
 21
13.724990844727
 31
0.0
  0
ARC
  5
4A3
100
AcDbEntity
  8
0
  6
CONTINUOUS
 62
          15
100
AcDbCircle
 10
14.25
 20
21.524993896484
 30
0.0
 40
0.300000011921
100
AcDbArc
 50
90.000002504478
 51
180.000008651422
  0
ARC
  5
4A4
100
AcDbEntity
  8
0
  6
CONTINUOUS
 62
          15
100
AcDbCircle
 10
17.550003051758
 20
21.524993896484
 30
0.0
 40
0.300000011921
100
AcDbArc
 50
0.0
 51
90.000002504478
  0
ARC
  5
4A5
100
AcDbEntity
  8
0
  6
CONTINUOUS
 62
          15
100
AcDbCircle
 10
17.550003051758
 20
14.024993896484
 30
0.0
 40
0.300000011921
100
AcDbArc
 50
269.999997495521
 51
0.0
  0
ARC
  5
4A6
100
AcDbEntity
  8
0
  6
CONTINUOUS
 62
          15
100
AcDbCircle
 10
14.25
 20
14.024993896484
 30
0.0
 40
0.300000011921
100
AcDbArc
 50
180.000008651422
 51
269.999997495521
  0
LINE
  5
4A7
100
AcDbEntity
  8
0
  6
CONTINUOUS
 62
          15
100
AcDbLine
 10
18.600006103516
 20
12.375
 30
0.0
 11
18.600006103516
 21
22.424987792969
 31
0.0
  0
LINE
  5
4A8
100
AcDbEntity
  8
0
  6
CONTINUOUS
 62
          15
100
AcDbLine
 10
18.600006103516
 20
4.949996948242
 30
0.0
 11
18.600006103516
 21
10.199996948242
 31
0.0
  0
LINE
  5
4A9
100
AcDbEntity
  8
0
  6
CONTINUOUS
 62
          15
100
AcDbLine
 10
-27.337493896484
 20
3.75
 30
0.0
 11
-27.337493896484
 21
34.800003051758
 31
0.0
  0
LINE
  5
4AA
100
AcDbEntity
  8
0
  6
CONTINUOUS
 62
          15
100
AcDbLine
 10
-27.337493896484
 20
34.800003051758
 30
0.0
 11
19.837509155273
 21
34.800003051758
 31
0.0
  0
LINE
  5
4AB
100
AcDbEntity
  8
0
  6
CONTINUOUS
 62
          15
100
AcDbLine
 10
-23.587493896484
 20
31.049987792969
 30
0.0
 11
-27.337493896484
 21
34.800003051758
 31
0.0
  0
LINE
  5
4AC
100
AcDbEntity
  8
0
  6
CONTINUOUS
 62
          15
100
AcDbLine
 10
-23.587493896484
 20
0.0
 30
0.0
 11
-27.337493896484
 21
3.75
 31
0.0
  0
LINE
  5
4AD
100
AcDbEntity
  8
0
  6
CONTINUOUS
 62
          15
100
AcDbLine
 10
19.837509155273
 20
34.800003051758
 30
0.0
 11
23.587501525879
 21
31.049987792969
 31
0.0
  0
TEXT
  5
4AE
100
AcDbEntity
  8
0
  6
CONTINUOUS
 62
          15
100
AcDbText
 10
-12.438339233398
 20
6.890955194831
 30
0.0
 40
0.800000011921
  1
TEST
 41
1.000000018626
  7
ROMAND
100
AcDbText
  0
TEXT
  5
4AF
100
AcDbEntity
  8
0
  6
CONTINUOUS
 62
          15
100
AcDbText
 10
-12.382957458496
 20
8.004892572761
 30
0.0
 40
0.800000011921
  1
MUTE
 41
1.000000018626
  7
ROMAND
100
AcDbText
  0
CIRCLE
  5
4B0
100
AcDbEntity
  8
0
  6
CONTINUOUS
 62
          15
100
AcDbCircle
 10
-11.008277893066
 20
9.888641357422
 30
0.0
 40
0.5
  0
TEXT
  5
4B1
100
AcDbEntity
  8
0
  6
CONTINUOUS
 62
          15
100
AcDbText
 10
-5.975006103516
 20
7.046908587217
 30
0.0
 40
1.5
  1
SA-6
 41
0.933333337307
  7
ROMAND
100
AcDbText
  0
ENDBLK
  5
4B2
100
AcDbEntity
  8
0
  6
BYBLOCK
 62
           0
100
AcDbBlockEnd
  0
BLOCK
  5
4B3
100
AcDbEntity
  8
0
100
AcDbBlockBegin
  2
CABLEREQ_8
 70
          64
 10
0.0
 20
0.0
 30
0.0
  3
CABLEREQ_8
  1

  0
TEXT
  5
4B4
100
AcDbEntity
  8
0
  6
CONTINUOUS
 62
          15
100
AcDbText
 10
-0.147918701172
 20
9.905474871397
 30
0.0
 40
1.5
  1
ALL SIGNAL CABLE TO BE A MINIMUM
 41
1.133333365122
  7
GOTHICI
100
AcDbText
  0
TEXT
  5
4B5
100
AcDbEntity
  8
0
  6
CONTINUOUS
 62
          15
100
AcDbText
 10
-0.147918701172
 20
7.50547477603
 30
0.0
 40
1.5
  1
OF 0.5 mm sq SCREENED / S.W.A /
 41
1.133333365122
  7
GOTHICI
100
AcDbText
  0
TEXT
  5
4B6
100
AcDbEntity
  8
0
  6
CONTINUOUS
 62
          15
100
AcDbText
 10
-0.147918701172
 20
5.105474680662
 30
0.0
 40
1.5
  1
OR IN METAL CONDUIT.
 41
1.133333365122
  7
GOTHICI
100
AcDbText
  0
TEXT
  5
4B7
100
AcDbEntity
  8
0
  6
CONTINUOUS
 62
          15
100
AcDbText
 10
-0.147918701172
 20
2.705474585295
 30
0.0
 40
1.5
  1
ALL JUNCTION BOXES MUST HAVE
 41
1.133333365122
  7
GOTHICI
100
AcDbText
  0
TEXT
  5
4B8
100
AcDbEntity
  8
0
  6
CONTINUOUS
 62
          15
100
AcDbText
 10
-0.147918701172
 20
0.305474489927
 30
0.0
 40
1.5
  1
THE SCREENS CONNECTED THROUGH
 41
1.133333365122
  7
GOTHICI
100
AcDbText
  0
TEXT
  5
4B9
100
AcDbEntity
  8
0
  6
CONTINUOUS
 62
          15
100
AcDbText
 10
-0.147918701172
 20
14.731797799468
 30
0.0
 40
2.0
  1
NOTE
  7
GOTHICI
100
AcDbText
  0
ENDBLK
  5
4BA
100
AcDbEntity
  8
0
  6
BYBLOCK
 62
           0
100
AcDbBlockEnd
  0
ENDSEC
  0
SECTION
  2
ENTITIES
  0
INSERT
  5
2C
100
AcDbEntity
  8
0
  6
CONTINUOUS
 62
           7
100
AcDbBlockReference
  2
TB4C_1
 10
68.581520080566
 20
53.271030426025
 30
0.0
  0
INSERT
  5
2D
100
AcDbEntity
  8
0
  6
CONTINUOUS
 62
           7
100
AcDbBlockReference
  2
TB4C_2
 10
123.834693908691
 20
53.367370605469
 30
0.0
  0
INSERT
  5
2E
100
AcDbEntity
  8
0
  6
CONTINUOUS
 62
           7
100
AcDbBlockReference
  2
TB4C_3
 10
181.973571777344
 20
53.381889343262
 30
0.0
  0
INSERT
  5
2F
100
AcDbEntity
  8
0
  6
CONTINUOUS
 62
           7
100
AcDbBlockReference
  2
SUPPLY_4
 10
129.18180847168
 20
115.740226745605
 30
0.0
 41
1.5
 42
1.5
 43
1.5
  0
INSERT
  5
30
100
AcDbEntity
  8
0
  6
CONTINUOUS
 62
           7
100
AcDbBlockReference
  2
RES_5
 10
83.626052856445
 20
105.729118347168
 30
0.0
  0
INSERT
  5
31
100
AcDbEntity
  8
0
  6
CONTINUOUS
 62
           7
100
AcDbBlockReference
  2
SATERM_6
 10
37.125968933105
 20
140.270477294922
 30
0.0
  0
INSERT
  5
32
100
AcDbEntity
  8
0
  6
CONTINUOUS
 62
           7
100
AcDbBlockReference
  2
SA_7
 10
99.735427856445
 20
151.250717163086
 30
0.0
  0
INSERT
  5
33
100
AcDbEntity
  8
0
  6
CONTINUOUS
 62
           7
100
AcDbBlockReference
  2
CABLEREQ_8
 10
214.745986938477
 20
96.628364562988
 30
0.0
  0
LINE
  5
34
100
AcDbEntity
  8
0
  6
CONTINUOUS
 62
          15
100
AcDbLine
 10
70.564956665039
 20
53.355110168457
 30
0.0
 11
70.564956665039
 21
66.787322998047
 31
0.0
  0
LINE
  5
35
100
AcDbEntity
  8
0
  6
CONTINUOUS
 62
          15
100
AcDbLine
 10
75.064956665039
 20
53.355110168457
 30
0.0
 11
75.064956665039
 21
68.787322998047
 31
0.0
  0
LINE
  5
36
100
AcDbEntity
  8
0
  6
CONTINUOUS
 62
          15
100
AcDbLine
 10
77.314956665039
 20
53.355110168457
 30
0.0
 11
77.314956665039
 21
70.787322998047
 31
0.0
  0
LINE
  5
37
100
AcDbEntity
  8
0
  6
CONTINUOUS
 62
          15
100
AcDbLine
 10
79.564956665039
 20
53.355110168457
 30
0.0
 11
79.564956665039
 21
72.787322998047
 31
0.0
  0
LINE
  5
38
100
AcDbEntity
  8
0
  6
CONTINUOUS
 62
          15
100
AcDbLine
 10
81.814956665039
 20
53.355110168457
 30
0.0
 11
81.814956665039
 21
74.787322998047
 31
0.0
  0
LINE
  5
39
100
AcDbEntity
  8
0
  6
CONTINUOUS
 62
          15
100
AcDbLine
 10
125.701560974121
 20
53.355110168457
 30
0.0
 11
125.701560974121
 21
58.144176483154
 31
0.0
  0
LINE
  5
3A
100
AcDbEntity
  8
0
  6
CONTINUOUS
 62
          15
100
AcDbLine
 10
130.201568603516
 20
53.355110168457
 30
0.0
 11
130.201568603516
 21
76.787322998047
 31
0.0
  0
LINE
  5
3B
100
AcDbEntity
  8
0
  6
CONTINUOUS
 62
          15
100
AcDbLine
 10
132.451568603516
 20
53.355110168457
 30
0.0
 11
132.451568603516
 21
78.787322998047
 31
0.0
  0
LINE
  5
3C
100
AcDbEntity
  8
0
  6
CONTINUOUS
 62
          15
100
AcDbLine
 10
134.701568603516
 20
53.355110168457
 30
0.0
 11
134.701568603516
 21
80.787322998047
 31
0.0
  0
LINE
  5
3D
100
AcDbEntity
  8
0
  6
CONTINUOUS
 62
          15
100
AcDbLine
 10
72.814956665039
 20
53.355110168457
 30
0.0
 11
72.814956665039
 21
58.144176483154
 31
0.0
  0
LINE
  5
3E
100
AcDbEntity
  8
0
  6
CONTINUOUS
 62
          15
100
AcDbLine
 10
72.814956665039
 20
58.144176483154
 30
0.0
 11
125.701560974121
 21
58.144176483154
 31
0.0
  0
LINE
  5
3F
100
AcDbEntity
  8
0
  6
CONTINUOUS
 62
          15
100
AcDbLine
 10
137.059860229492
 20
53.319011688232
 30
0.0
 11
137.059860229492
 21
82.599655151367
 31
0.0
  0
LINE
  5
40
100
AcDbEntity
  8
0
  6
CONTINUOUS
 62
          15
100
AcDbLine
 10
128.059860229492
 20
58.222881317139
 30
0.0
 11
183.948745727539
 21
58.222881317139
 31
0.0
  0
LINE
  5
41
100
AcDbEntity
  8
0
  6
CONTINUOUS
 62
          15
100
AcDbLine
 10
128.059860229492
 20
53.319011688232
 30
0.0
 11
128.059860229492
 21
58.222881317139
 31
0.0
  0
LINE
  5
42
100
AcDbEntity
  8
0
  6
CONTINUOUS
 62
          15
100
AcDbLine
 10
144.426940917969
 20
27.183633804321
 30
0.0
 11
146.426940917969
 21
27.183633804321
 31
0.0
  0
LINE
  5
43
100
AcDbEntity
  8
0
  6
CONTINUOUS
 62
          15
100
AcDbLine
 10
137.027633666992
 20
27.183633804321
 30
0.0
 11
139.426940917969
 21
27.183633804321
 31
0.0
  0
LINE
  5
44
100
AcDbEntity
  8
0
  6
CONTINUOUS
 62
          15
100
AcDbLine
 10
144.426940917969
 20
27.183633804321
 30
0.0
 11
144.426940917969
 21
29.183633804321
 31
0.0
  0
LINE
  5
45
100
AcDbEntity
  8
0
  6
CONTINUOUS
 62
          15
100
AcDbLine
 10
139.426940917969
 20
27.183633804321
 30
0.0
 11
144.926940917969
 21
29.183633804321
 31
0.0
  0
LINE
  5
46
100
AcDbEntity
  8
0
  6
CONTINUOUS
 62
          15
100
AcDbLine
 10
137.027633666992
 20
27.183633804321
 30
0.0
 11
137.027633666992
 21
32.30676651001
 31
0.0
  0
LINE
  5
47
100
AcDbEntity
  8
0
  6
CONTINUOUS
 62
          15
100
AcDbLine
 10
146.426940917969
 20
27.183633804321
 30
0.0
 11
147.934219360352
 21
27.183633804321
 31
0.0
  0
LINE
  5
48
100
AcDbEntity
  8
0
  6
CONTINUOUS
 62
          15
100
AcDbLine
 10
183.948745727539
 20
53.333530426025
 30
0.0
 11
183.948745727539
 21
58.222881317139
 31
0.0
  0
LINE
  5
49
100
AcDbEntity
  8
0
  6
CONTINUOUS
 62
          15
100
AcDbLine
 10
188.448745727539
 20
53.333530426025
 30
0.0
 11
188.448745727539
 21
84.97632598877
 31
0.0
  0
LINE
  5
4A
100
AcDbEntity
  8
0
  6
CONTINUOUS
 62
          15
100
AcDbLine
 10
192.948745727539
 20
53.333530426025
 30
0.0
 11
192.948745727539
 21
89.773094177246
 31
0.0
  0
LINE
  5
4B
100
AcDbEntity
  8
0
  6
CONTINUOUS
 62
          15
100
AcDbLine
 10
190.74479675293
 20
53.324787139893
 30
0.0
 11
190.74479675293
 21
87.432929992676
 31
0.0
  0
TEXT
  5
4C
100
AcDbEntity
  8
0
  6
CONTINUOUS
 62
          15
100
AcDbText
 10
136.605733394623
 20
28.963498389721
 30
0.0
 40
1.350000023842
  1
SURGICAL AIR 4 BAR
 41
1.037037001062
  7
GOTHICI
100
AcDbText
  0
TEXT
  5
4D
100
AcDbEntity
  8
0
  6
CONTINUOUS
 62
          15
100
AcDbText
 10
143.605733573437
 20
27.073498356342
 30
0.0
 40
1.350000023842
  1
HIGH PRESSURE
 41
1.037037001062
  7
GOTHICI
100
AcDbText
  0
TEXT
  5
4E
100
AcDbEntity
  8
0
  6
CONTINUOUS
 62
          15
100
AcDbText
 10
161.805734038353
 20
25.183498322964
 30
0.0
 40
1.350000023842
  1

 41
1.037037001062
  7
GOTHICI
100
AcDbText
  0
TEXT
  5
4F
100
AcDbEntity
  8
0
  6
CONTINUOUS
 62
          15
100
AcDbText
 10
136.605733394623
 20
23.293498289585
 30
0.0
 40
1.350000023842
  1
SURGICAL AIR 4 BAR
 41
1.037037001062
  7
GOTHICI
100
AcDbText
  0
TEXT
  5
50
100
AcDbEntity
  8
0
  6
CONTINUOUS
 62
          15
100
AcDbText
 10
145.0057336092
 20
21.403498256207
 30
0.0
 40
1.350000023842
  1
LOW PRESSURE
 41
1.037037001062
  7
GOTHICI
100
AcDbText
  0
TEXT
  5
51
100
AcDbEntity
  8
0
  6
CONTINUOUS
 62
          15
100
AcDbText
 10
161.805734038353
 20
19.513498222828
 30
0.0
 40
1.350000023842
  1

 41
1.037037001062
  7
GOTHICI
100
AcDbText
  0
TEXT
  5
52
100
AcDbEntity
  8
0
  6
CONTINUOUS
 62
          15
100
AcDbText
 10
138.005733430386
 20
17.623498189449
 30
0.0
 40
1.350000023842
  1
MEDICAL AIR 4 BAR
 41
1.037037001062
  7
GOTHICI
100
AcDbText
  0
TEXT
  5
53
100
AcDbEntity
  8
0
  6
CONTINUOUS
 62
          15
100
AcDbText
 10
143.605733573437
 20
15.733498156071
 30
0.0
 40
1.350000023842
  1
HIGH PRESSURE
 41
1.037037001062
  7
GOTHICI
100
AcDbText
  0
TEXT
  5
54
100
AcDbEntity
  8
0
  6
CONTINUOUS
 62
          15
100
AcDbText
 10
161.805734038353
 20
13.843498122692
 30
0.0
 40
1.350000023842
  1

 41
1.037037001062
  7
GOTHICI
100
AcDbText
  0
TEXT
  5
55
100
AcDbEntity
  8
0
  6
CONTINUOUS
 62
          15
100
AcDbText
 10
138.005733430386
 20
11.953498089314
 30
0.0
 40
1.350000023842
  1
MEDICAL AIR 4 BAR
 41
1.037037001062
  7
GOTHICI
100
AcDbText
  0
TEXT
  5
56
100
AcDbEntity
  8
0
  6
CONTINUOUS
 62
          15
100
AcDbText
 10
145.0057336092
 20
10.063498055935
 30
0.0
 40
1.350000023842
  1
LOW PRESSURE
 41
1.037037001062
  7
GOTHICI
100
AcDbText
  0
TEXT
  5
57
100
AcDbEntity
  8
0
  6
CONTINUOUS
 62
          15
100
AcDbText
 10
217.379665970802
 20
28.942952430248
 30
0.0
 40
1.350000023842
  1

 41
1.037037001062
  7
GOTHICI
100
AcDbText
  0
TEXT
  5
58
100
AcDbEntity
  8
0
  6
CONTINUOUS
 62
          15
100
AcDbText
 10
217.379665970802
 20
27.05295239687
 30
0.0
 40
1.350000023842
  1

 41
1.037037001062
  7
GOTHICI
100
AcDbText
  0
TEXT
  5
59
100
AcDbEntity
  8
0
  6
CONTINUOUS
 62
          15
100
AcDbText
 10
217.379665970802
 20
25.162952363491
 30
0.0
 40
1.350000023842
  1

 41
1.037037001062
  7
GOTHICI
100
AcDbText
  0
TEXT
  5
5A
100
AcDbEntity
  8
0
  6
CONTINUOUS
 62
          15
100
AcDbText
 10
208.979665756226
 20
23.272952330112
 30
0.0
 40
1.350000023842
  1
VACUUM
 41
1.037037001062
  7
GOTHICI
100
AcDbText
  0
TEXT
  5
5B
100
AcDbEntity
  8
0
  6
CONTINUOUS
 62
          15
100
AcDbText
 10
200.579665541649
 20
21.382952296734
 30
0.0
 40
1.350000023842
  1
LOW PRESSURE
 41
1.037037001062
  7
GOTHICI
100
AcDbText
  0
TEXT
  5
5C
100
AcDbEntity
  8
0
  6
CONTINUOUS
 62
          15
100
AcDbText
 10
217.379665970802
 20
19.492952263355
 30
0.0
 40
1.350000023842
  1

 41
1.037037001062
  7
GOTHICI
100
AcDbText
  0
TEXT
  5
5D
100
AcDbEntity
  8
0
  6
CONTINUOUS
 62
          15
100
AcDbText
 10
197.779665470123
 20
17.602952229977
 30
0.0
 40
1.350000023842
  1
CARBON DIOXIDE
 41
1.037037001062
  7
GOTHICI
100
AcDbText
  0
TEXT
  5
5E
100
AcDbEntity
  8
0
  6
CONTINUOUS
 62
          15
100
AcDbText
 10
199.179665505886
 20
15.712952196598
 30
0.0
 40
1.350000023842
  1
HIGH PRESSURE
 41
1.037037001062
  7
GOTHICI
100
AcDbText
  0
TEXT
  5
5F
100
AcDbEntity
  8
0
  6
CONTINUOUS
 62
          15
100
AcDbText
 10
217.379665970802
 20
13.822952163219
 30
0.0
 40
1.350000023842
  1

 41
1.037037001062
  7
GOTHICI
100
AcDbText
  0
TEXT
  5
60
100
AcDbEntity
  8
0
  6
CONTINUOUS
 62
          15
100
AcDbText
 10
197.779665470123
 20
11.932952129841
 30
0.0
 40
1.350000023842
  1
CARBON DIOXIDE
 41
1.037037001062
  7
GOTHICI
100
AcDbText
  0
TEXT
  5
61
100
AcDbEntity
  8
0
  6
CONTINUOUS
 62
          15
100
AcDbText
 10
200.579665541649
 20
10.042952096462
 30
0.0
 40
1.350000023842
  1
LOW PRESSURE
 41
1.037037001062
  7
GOTHICI
100
AcDbText
  0
TEXT
  5
62
100
AcDbEntity
  8
0
  6
CONTINUOUS
 62
          15
100
AcDbText
 10
94.080574035645
 20
28.963572785258
 30
0.0
 40
1.350000023842
  1
NITROUS OXIDE
 41
1.037037001062
  7
GOTHICI
100
AcDbText
  0
TEXT
  5
63
100
AcDbEntity
  8
0
  6
CONTINUOUS
 62
          15
100
AcDbText
 10
94.080574035645
 20
27.073572710156
 30
0.0
 40
1.350000023842
  1
HIGH PRESSURE
 41
1.037037001062
  7
GOTHICI
100
AcDbText
  0
TEXT
  5
64
100
AcDbEntity
  8
0
  6
CONTINUOUS
 62
          15
100
AcDbText
 10
94.080574035645
 20
25.183572635055
 30
0.0
 40
1.350000023842
  1

 41
1.037037001062
  7
GOTHICI
100
AcDbText
  0
TEXT
  5
65
100
AcDbEntity
  8
0
  6
CONTINUOUS
 62
          15
100
AcDbText
 10
94.080574035645
 20
23.293572559953
 30
0.0
 40
1.350000023842
  1
NITROUS OXIDE
 41
1.037037001062
  7
GOTHICI
100
AcDbText
  0
TEXT
  5
66
100
AcDbEntity
  8
0
  6
CONTINUOUS
 62
          15
100
AcDbText
 10
94.080574035645
 20
21.403572484851
 30
0.0
 40
1.350000023842
  1
LOW PRESSURE
 41
1.037037001062
  7
GOTHICI
100
AcDbText
  0
TEXT
  5
67
100
AcDbEntity
  8
0
  6
CONTINUOUS
 62
          15
100
AcDbText
 10
94.080574035645
 20
19.513572409749
 30
0.0
 40
1.350000023842
  1

 41
1.037037001062
  7
GOTHICI
100
AcDbText
  0
TEXT
  5
68
100
AcDbEntity
  8
0
  6
CONTINUOUS
 62
          15
100
AcDbText
 10
94.080574035645
 20
17.623572334647
 30
0.0
 40
1.350000023842
  1
  OXYGEN
 41
1.037037001062
  7
GOTHICI
100
AcDbText
  0
TEXT
  5
69
100
AcDbEntity
  8
0
  6
CONTINUOUS
 62
          15
100
AcDbText
 10
94.080574035645
 20
15.733572259545
 30
0.0
 40
1.350000023842
  1
HIGH PRESSURE
 41
1.037037001062
  7
GOTHICI
100
AcDbText
  0
TEXT
  5
6A
100
AcDbEntity
  8
0
  6
CONTINUOUS
 62
          15
100
AcDbText
 10
94.080574035645
 20
13.843572184443
 30
0.0
 40
1.350000023842
  1

 41
1.037037001062
  7
GOTHICI
100
AcDbText
  0
TEXT
  5
6B
100
AcDbEntity
  8
0
  6
CONTINUOUS
 62
          15
100
AcDbText
 10
94.080574035645
 20
11.953572109342
 30
0.0
 40
1.350000023842
  1
  OXYGEN
 41
1.037037001062
  7
GOTHICI
100
AcDbText
  0
TEXT
  5
6C
100
AcDbEntity
  8
0
  6
CONTINUOUS
 62
          15
100
AcDbText
 10
94.080574035645
 20
10.06357203424
 30
0.0
 40
1.350000023842
  1
LOW PRESSURE
 41
1.037037001062
  7
GOTHICI
100
AcDbText
  0
LINE
  5
6D
100
AcDbEntity
  8
0
  6
CONTINUOUS
 62
          15
100
AcDbLine
 10
22.771373748779
 20
109.087982177734
 30
0.0
 11
22.771373748779
 21
131.947402954102
 31
0.0
  0
LINE
  5
6E
100
AcDbEntity
  8
0
  6
CONTINUOUS
 62
          15
100
AcDbLine
 10
140.866180419922
 20
134.182037353516
 30
0.0
 11
140.866180419922
 21
109.087982177734
 31
0.0
  0
LINE
  5
6F
100
AcDbEntity
  8
0
  6
CONTINUOUS
 62
          15
100
AcDbLine
 10
140.866180419922
 20
109.087982177734
 30
0.0
 11
22.771373748779
 21
109.087982177734
 31
0.0
  0
LINE
  5
70
100
AcDbEntity
  8
0
  6
CONTINUOUS
 62
          15
100
AcDbLine
 10
32.406841278076
 20
131.376480102539
 30
0.0
 11
32.406841278076
 21
127.947479248047
 31
0.0
  0
LINE
  5
71
100
AcDbEntity
  8
0
  6
CONTINUOUS
 62
          15
100
AcDbLine
 10
32.406841278076
 20
131.376480102539
 30
0.0
 11
34.121349334717
 21
131.376480102539
 31
0.0
  0
LINE
  5
72
100
AcDbEntity
  8
0
  6
CONTINUOUS
 62
          15
100
AcDbLine
 10
34.121349334717
 20
127.947479248047
 30
0.0
 11
34.121349334717
 21
131.376480102539
 31
0.0
  0
LINE
  5
73
100
AcDbEntity
  8
0
  6
CONTINUOUS
 62
          15
100
AcDbLine
 10
34.121349334717
 20
127.947479248047
 30
0.0
 11
32.406841278076
 21
127.947479248047
 31
0.0
  0
LINE
  5
74
100
AcDbEntity
  8
0
  6
CONTINUOUS
 62
          15
100
AcDbLine
 10
33.264095306396
 20
127.947479248047
 30
0.0
 11
33.264095306396
 21
127.518852233887
 31
0.0
  0
LINE
  5
75
100
AcDbEntity
  8
0
  6
CONTINUOUS
 62
          15
100
AcDbLine
 10
33.264095306396
 20
127.947479248047
 30
0.0
 11
33.264095306396
 21
127.947479248047
 31
0.0
  0
LINE
  5
76
100
AcDbEntity
  8
0
  6
CONTINUOUS
 62
          15
100
AcDbLine
 10
33.264095306396
 20
127.518852233887
 30
0.0
 11
33.264095306396
 21
127.947479248047
 31
0.0
  0
LINE
  5
77
100
AcDbEntity
  8
0
  6
CONTINUOUS
 62
          15
100
AcDbLine
 10
33.264095306396
 20
127.518852233887
 30
0.0
 11
33.264095306396
 21
127.518852233887
 31
0.0
  0
LINE
  5
78
100
AcDbEntity
  8
0
  6
CONTINUOUS
 62
          15
100
AcDbLine
 10
33.264095306396
 20
131.805099487305
 30
0.0
 11
33.264095306396
 21
131.376480102539
 31
0.0
  0
LINE
  5
79
100
AcDbEntity
  8
0
  6
CONTINUOUS
 62
          15
100
AcDbLine
 10
33.264095306396
 20
131.805099487305
 30
0.0
 11
33.264095306396
 21
131.805099487305
 31
0.0
  0
LINE
  5
7A
100
AcDbEntity
  8
0
  6
CONTINUOUS
 62
          15
100
AcDbLine
 10
33.264095306396
 20
131.376480102539
 30
0.0
 11
33.264095306396
 21
131.805099487305
 31
0.0
  0
LINE
  5
7B
100
AcDbEntity
  8
0
  6
CONTINUOUS
 62
          15
100
AcDbLine
 10
33.264095306396
 20
131.376480102539
 30
0.0
 11
33.264095306396
 21
131.376480102539
 31
0.0
  0
LINE
  5
7C
100
AcDbEntity
  8
0
  6
CONTINUOUS
 62
          15
100
AcDbLine
 10
127.527305603027
 20
133.605331420898
 30
0.0
 11
127.527305603027
 21
139.177658081055
 31
0.0
  0
LINE
  5
7D
100
AcDbEntity
  8
0
  6
CONTINUOUS
 62
          15
100
AcDbLine
 10
127.527305603027
 20
133.605331420898
 30
0.0
 11
122.383781433105
 21
133.605331420898
 31
0.0
  0
LINE
  5
7E
100
AcDbEntity
  8
0
  6
CONTINUOUS
 62
          15
100
AcDbLine
 10
122.383781433105
 20
140.517684936523
 30
0.0
 11
122.383781433105
 21
133.605331420898
 31
0.0
  0
LINE
  5
7F
100
AcDbEntity
  8
0
  6
CONTINUOUS
 62
          15
100
AcDbLine
 10
134.617431640625
 20
116.80322265625
 30
0.0
 11
138.500091552734
 21
116.80322265625
 31
0.0
  0
LINE
  5
80
100
AcDbEntity
  8
0
  6
CONTINUOUS
 62
          15
100
AcDbLine
 10
119.846397399902
 20
116.80322265625
 30
0.0
 11
123.589347839355
 21
116.80322265625
 31
0.0
  0
LINE
  5
81
100
AcDbEntity
  8
0
  6
CONTINUOUS
 62
          15
100
AcDbLine
 10
119.846397399902
 20
116.80322265625
 30
0.0
 11
119.846397399902
 21
141.091339111328
 31
0.0
  0
LINE
  5
82
100
AcDbEntity
  8
0
  6
CONTINUOUS
 62
          15
100
AcDbLine
 10
138.500091552734
 20
135.282180786133
 30
0.0
 11
138.500091552734
 21
116.80322265625
 31
0.0
  0
ARC
  5
83
100
AcDbEntity
  8
0
  6
CONTINUOUS
 62
          15
100
AcDbCircle
 10
129.070343017578
 20
115.94596862793
 30
0.0
 40
6.65225982666
100
AcDbArc
 50
224.999999658377
 51
314.99999874776
  0
LINE
  5
84
100
AcDbEntity
  8
0
  6
CONTINUOUS
 62
          15
100
AcDbLine
 10
118.783378601074
 20
115.740226745605
 30
0.0
 11
139.580230712891
 21
115.740226745605
 31
0.0
  0
LINE
  5
85
100
AcDbEntity
  8
0
  6
CONTINUOUS
 62
          15
100
AcDbLine
 10
118.783378601074
 20
115.740226745605
 30
0.0
 11
118.783378601074
 21
141.316055297852
 31
0.0
  0
LINE
  5
86
100
AcDbEntity
  8
0
  6
CONTINUOUS
 62
          15
100
AcDbLine
 10
139.580230712891
 20
134.794891357422
 30
0.0
 11
139.580230712891
 21
115.740226745605
 31
0.0
  0
ARC
  5
87
100
AcDbEntity
  8
0
  6
CONTINUOUS
 62
          15
100
AcDbCircle
 10
112.98836517334
 20
102.86434173584
 30
0.0
 40
14.144624710083
100
AcDbArc
 50
36.249999585792
 51
65.750003252616
  0
ARC
  5
88
100
AcDbEntity
  8
0
  6
CONTINUOUS
 62
          15
100
AcDbCircle
 10
144.929473876953
 20
102.86434173584
 30
0.0
 40
13.938884735107
100
AcDbArc
 50
112.499998007956
 51
142.999996010783
  0
LINE
  5
89
100
AcDbEntity
  8
0
  6
CONTINUOUS
 62
          15
100
AcDbLine
 10
134.008193969727
 20
129.919158935547
 30
0.0
 11
123.926902770996
 21
129.919158935547
 31
0.0
  0
LINE
  5
8A
100
AcDbEntity
  8
0
  6
CONTINUOUS
 62
          15
100
AcDbLine
 10
123.926902770996
 20
121.689552307129
 30
0.0
 11
123.926902770996
 21
129.919158935547
 31
0.0
  0
LINE
  5
8B
100
AcDbEntity
  8
0
  6
CONTINUOUS
 62
          15
100
AcDbLine
 10
75.698013305664
 20
144.513244628906
 30
0.0
 11
75.698013305664
 21
140.58332824707
 31
0.0
  0
LINE
  5
8C
100
AcDbEntity
  8
0
  6
CONTINUOUS
 62
          15
100
AcDbLine
 10
102.701309204102
 20
140.58332824707
 30
0.0
 11
102.701309204102
 21
143.751327514648
 31
0.0
  0
LINE
  5
8D
100
AcDbEntity
  8
0
  6
CONTINUOUS
 62
          15
100
AcDbLine
 10
102.701309204102
 20
140.58332824707
 30
0.0
 11
75.698013305664
 21
140.58332824707
 31
0.0
  0
LINE
  5
8E
100
AcDbEntity
  8
0
  6
CONTINUOUS
 62
          15
100
AcDbLine
 10
28.977825164795
 20
131.376480102539
 30
0.0
 11
28.977825164795
 21
127.947479248047
 31
0.0
  0
LINE
  5
8F
100
AcDbEntity
  8
0
  6
CONTINUOUS
 62
          15
100
AcDbLine
 10
28.977825164795
 20
131.376480102539
 30
0.0
 11
30.692333221436
 21
131.376480102539
 31
0.0
  0
LINE
  5
90
100
AcDbEntity
  8
0
  6
CONTINUOUS
 62
          15
100
AcDbLine
 10
30.692333221436
 20
127.947479248047
 30
0.0
 11
30.692333221436
 21
131.376480102539
 31
0.0
  0
LINE
  5
91
100
AcDbEntity
  8
0
  6
CONTINUOUS
 62
          15
100
AcDbLine
 10
30.692333221436
 20
127.947479248047
 30
0.0
 11
28.977825164795
 21
127.947479248047
 31
0.0
  0
LINE
  5
92
100
AcDbEntity
  8
0
  6
CONTINUOUS
 62
          15
100
AcDbLine
 10
29.835124969482
 20
127.947479248047
 30
0.0
 11
29.835124969482
 21
127.518852233887
 31
0.0
  0
LINE
  5
93
100
AcDbEntity
  8
0
  6
CONTINUOUS
 62
          15
100
AcDbLine
 10
29.835124969482
 20
127.947479248047
 30
0.0
 11
29.835124969482
 21
127.947479248047
 31
0.0
  0
LINE
  5
94
100
AcDbEntity
  8
0
  6
CONTINUOUS
 62
          15
100
AcDbLine
 10
29.835124969482
 20
127.518852233887
 30
0.0
 11
29.835124969482
 21
127.947479248047
 31
0.0
  0
LINE
  5
95
100
AcDbEntity
  8
0
  6
CONTINUOUS
 62
          15
100
AcDbLine
 10
29.835124969482
 20
127.518852233887
 30
0.0
 11
29.835124969482
 21
127.518852233887
 31
0.0
  0
LINE
  5
96
100
AcDbEntity
  8
0
  6
CONTINUOUS
 62
          15
100
AcDbLine
 10
29.835124969482
 20
131.805099487305
 30
0.0
 11
29.835124969482
 21
131.376480102539
 31
0.0
  0
LINE
  5
97
100
AcDbEntity
  8
0
  6
CONTINUOUS
 62
          15
100
AcDbLine
 10
29.835124969482
 20
131.805099487305
 30
0.0
 11
29.835124969482
 21
131.805099487305
 31
0.0
  0
LINE
  5
98
100
AcDbEntity
  8
0
  6
CONTINUOUS
 62
          15
100
AcDbLine
 10
29.835124969482
 20
131.376480102539
 30
0.0
 11
29.835124969482
 21
131.805099487305
 31
0.0
  0
LINE
  5
99
100
AcDbEntity
  8
0
  6
CONTINUOUS
 62
          15
100
AcDbLine
 10
29.835124969482
 20
131.376480102539
 30
0.0
 11
29.835124969482
 21
131.376480102539
 31
0.0
  0
LINE
  5
9A
100
AcDbEntity
  8
0
  6
CONTINUOUS
 62
          15
100
AcDbLine
 10
39.264873504639
 20
131.376480102539
 30
0.0
 11
39.264873504639
 21
127.947479248047
 31
0.0
  0
LINE
  5
9B
100
AcDbEntity
  8
0
  6
CONTINUOUS
 62
          15
100
AcDbLine
 10
39.264873504639
 20
131.376480102539
 30
0.0
 11
40.979381561279
 21
131.376480102539
 31
0.0
  0
LINE
  5
9C
100
AcDbEntity
  8
0
  6
CONTINUOUS
 62
          15
100
AcDbLine
 10
40.979381561279
 20
127.947479248047
 30
0.0
 11
40.979381561279
 21
131.376480102539
 31
0.0
  0
LINE
  5
9D
100
AcDbEntity
  8
0
  6
CONTINUOUS
 62
          15
100
AcDbLine
 10
40.979381561279
 20
127.947479248047
 30
0.0
 11
39.264873504639
 21
127.947479248047
 31
0.0
  0
LINE
  5
9E
100
AcDbEntity
  8
0
  6
CONTINUOUS
 62
          15
100
AcDbLine
 10
40.122081756592
 20
127.947479248047
 30
0.0
 11
40.122081756592
 21
127.518852233887
 31
0.0
  0
LINE
  5
9F
100
AcDbEntity
  8
0
  6
CONTINUOUS
 62
          15
100
AcDbLine
 10
40.122081756592
 20
127.947479248047
 30
0.0
 11
40.122081756592
 21
127.947479248047
 31
0.0
  0
LINE
  5
A0
100
AcDbEntity
  8
0
  6
CONTINUOUS
 62
          15
100
AcDbLine
 10
40.122081756592
 20
127.518852233887
 30
0.0
 11
40.122081756592
 21
127.947479248047
 31
0.0
  0
LINE
  5
A1
100
AcDbEntity
  8
0
  6
CONTINUOUS
 62
          15
100
AcDbLine
 10
40.122081756592
 20
127.518852233887
 30
0.0
 11
40.122081756592
 21
127.518852233887
 31
0.0
  0
LINE
  5
A2
100
AcDbEntity
  8
0
  6
CONTINUOUS
 62
          15
100
AcDbLine
 10
40.122081756592
 20
131.805099487305
 30
0.0
 11
40.122081756592
 21
131.376480102539
 31
0.0
  0
LINE
  5
A3
100
AcDbEntity
  8
0
  6
CONTINUOUS
 62
          15
100
AcDbLine
 10
40.122081756592
 20
131.805099487305
 30
0.0
 11
40.122081756592
 21
131.805099487305
 31
0.0
  0
LINE
  5
A4
100
AcDbEntity
  8
0
  6
CONTINUOUS
 62
          15
100
AcDbLine
 10
40.122081756592
 20
131.376480102539
 30
0.0
 11
40.122081756592
 21
131.805099487305
 31
0.0
  0
LINE
  5
A5
100
AcDbEntity
  8
0
  6
CONTINUOUS
 62
          15
100
AcDbLine
 10
40.122081756592
 20
131.376480102539
 30
0.0
 11
40.122081756592
 21
131.376480102539
 31
0.0
  0
LINE
  5
A6
100
AcDbEntity
  8
0
  6
CONTINUOUS
 62
          15
100
AcDbLine
 10
35.835857391357
 20
131.376480102539
 30
0.0
 11
35.835857391357
 21
127.947479248047
 31
0.0
  0
LINE
  5
A7
100
AcDbEntity
  8
0
  6
CONTINUOUS
 62
          15
100
AcDbLine
 10
35.835857391357
 20
131.376480102539
 30
0.0
 11
37.550365447998
 21
131.376480102539
 31
0.0
  0
LINE
  5
A8
100
AcDbEntity
  8
0
  6
CONTINUOUS
 62
          15
100
AcDbLine
 10
37.550365447998
 20
127.947479248047
 30
0.0
 11
37.550365447998
 21
131.376480102539
 31
0.0
  0
LINE
  5
A9
100
AcDbEntity
  8
0
  6
CONTINUOUS
 62
          15
100
AcDbLine
 10
37.550365447998
 20
127.947479248047
 30
0.0
 11
35.835857391357
 21
127.947479248047
 31
0.0
  0
LINE
  5
AA
100
AcDbEntity
  8
0
  6
CONTINUOUS
 62
          15
100
AcDbLine
 10
36.693065643311
 20
127.947479248047
 30
0.0
 11
36.693065643311
 21
127.518852233887
 31
0.0
  0
LINE
  5
AB
100
AcDbEntity
  8
0
  6
CONTINUOUS
 62
          15
100
AcDbLine
 10
36.693065643311
 20
127.947479248047
 30
0.0
 11
36.693065643311
 21
127.947479248047
 31
0.0
  0
LINE
  5
AC
100
AcDbEntity
  8
0
  6
CONTINUOUS
 62
          15
100
AcDbLine
 10
36.693065643311
 20
127.518852233887
 30
0.0
 11
36.693065643311
 21
127.947479248047
 31
0.0
  0
LINE
  5
AD
100
AcDbEntity
  8
0
  6
CONTINUOUS
 62
          15
100
AcDbLine
 10
36.693065643311
 20
127.518852233887
 30
0.0
 11
36.693065643311
 21
127.518852233887
 31
0.0
  0
LINE
  5
AE
100
AcDbEntity
  8
0
  6
CONTINUOUS
 62
          15
100
AcDbLine
 10
36.693065643311
 20
131.805099487305
 30
0.0
 11
36.693065643311
 21
131.376480102539
 31
0.0
  0
LINE
  5
AF
100
AcDbEntity
  8
0
  6
CONTINUOUS
 62
          15
100
AcDbLine
 10
36.693065643311
 20
131.805099487305
 30
0.0
 11
36.693065643311
 21
131.805099487305
 31
0.0
  0
LINE
  5
B0
100
AcDbEntity
  8
0
  6
CONTINUOUS
 62
          15
100
AcDbLine
 10
36.693065643311
 20
131.376480102539
 30
0.0
 11
36.693065643311
 21
131.805099487305
 31
0.0
  0
LINE
  5
B1
100
AcDbEntity
  8
0
  6
CONTINUOUS
 62
          15
100
AcDbLine
 10
36.693065643311
 20
131.376480102539
 30
0.0
 11
36.693065643311
 21
131.376480102539
 31
0.0
  0
LINE
  5
B2
100
AcDbEntity
  8
0
  6
CONTINUOUS
 62
          15
100
AcDbLine
 10
46.122859954834
 20
131.376480102539
 30
0.0
 11
46.122859954834
 21
127.947479248047
 31
0.0
  0
LINE
  5
B3
100
AcDbEntity
  8
0
  6
CONTINUOUS
 62
          15
100
AcDbLine
 10
46.122859954834
 20
131.376480102539
 30
0.0
 11
47.837322235107
 21
131.376480102539
 31
0.0
  0
LINE
  5
B4
100
AcDbEntity
  8
0
  6
CONTINUOUS
 62
          15
100
AcDbLine
 10
47.837322235107
 20
127.947479248047
 30
0.0
 11
47.837322235107
 21
131.376480102539
 31
0.0
  0
LINE
  5
B5
100
AcDbEntity
  8
0
  6
CONTINUOUS
 62
          15
100
AcDbLine
 10
47.837322235107
 20
127.947479248047
 30
0.0
 11
46.122859954834
 21
127.947479248047
 31
0.0
  0
LINE
  5
B6
100
AcDbEntity
  8
0
  6
CONTINUOUS
 62
          15
100
AcDbLine
 10
46.980113983154
 20
127.947479248047
 30
0.0
 11
46.980113983154
 21
127.518852233887
 31
0.0
  0
LINE
  5
B7
100
AcDbEntity
  8
0
  6
CONTINUOUS
 62
          15
100
AcDbLine
 10
46.980113983154
 20
127.947479248047
 30
0.0
 11
46.980113983154
 21
127.947479248047
 31
0.0
  0
LINE
  5
B8
100
AcDbEntity
  8
0
  6
CONTINUOUS
 62
          15
100
AcDbLine
 10
46.980113983154
 20
127.518852233887
 30
0.0
 11
46.980113983154
 21
127.947479248047
 31
0.0
  0
LINE
  5
B9
100
AcDbEntity
  8
0
  6
CONTINUOUS
 62
          15
100
AcDbLine
 10
46.980113983154
 20
127.518852233887
 30
0.0
 11
46.980113983154
 21
127.518852233887
 31
0.0
  0
LINE
  5
BA
100
AcDbEntity
  8
0
  6
CONTINUOUS
 62
          15
100
AcDbLine
 10
46.980113983154
 20
131.805099487305
 30
0.0
 11
46.980113983154
 21
131.376480102539
 31
0.0
  0
LINE
  5
BB
100
AcDbEntity
  8
0
  6
CONTINUOUS
 62
          15
100
AcDbLine
 10
46.980113983154
 20
131.805099487305
 30
0.0
 11
46.980113983154
 21
131.805099487305
 31
0.0
  0
LINE
  5
BC
100
AcDbEntity
  8
0
  6
CONTINUOUS
 62
          15
100
AcDbLine
 10
46.980113983154
 20
131.376480102539
 30
0.0
 11
46.980113983154
 21
131.805099487305
 31
0.0
  0
LINE
  5
BD
100
AcDbEntity
  8
0
  6
CONTINUOUS
 62
          15
100
AcDbLine
 10
46.980113983154
 20
131.376480102539
 30
0.0
 11
46.980113983154
 21
131.376480102539
 31
0.0
  0
LINE
  5
BE
100
AcDbEntity
  8
0
  6
CONTINUOUS
 62
          15
100
AcDbLine
 10
42.693843841553
 20
131.376480102539
 30
0.0
 11
42.693843841553
 21
127.947479248047
 31
0.0
  0
LINE
  5
BF
100
AcDbEntity
  8
0
  6
CONTINUOUS
 62
          15
100
AcDbLine
 10
42.693843841553
 20
131.376480102539
 30
0.0
 11
44.408351898193
 21
131.376480102539
 31
0.0
  0
LINE
  5
C0
100
AcDbEntity
  8
0
  6
CONTINUOUS
 62
          15
100
AcDbLine
 10
44.408351898193
 20
127.947479248047
 30
0.0
 11
44.408351898193
 21
131.376480102539
 31
0.0
  0
LINE
  5
C1
100
AcDbEntity
  8
0
  6
CONTINUOUS
 62
          15
100
AcDbLine
 10
44.408351898193
 20
127.947479248047
 30
0.0
 11
42.693843841553
 21
127.947479248047
 31
0.0
  0
LINE
  5
C2
100
AcDbEntity
  8
0
  6
CONTINUOUS
 62
          15
100
AcDbLine
 10
43.551097869873
 20
127.947479248047
 30
0.0
 11
43.551097869873
 21
127.518852233887
 31
0.0
  0
LINE
  5
C3
100
AcDbEntity
  8
0
  6
CONTINUOUS
 62
          15
100
AcDbLine
 10
43.551097869873
 20
127.947479248047
 30
0.0
 11
43.551097869873
 21
127.947479248047
 31
0.0
  0
LINE
  5
C4
100
AcDbEntity
  8
0
  6
CONTINUOUS
 62
          15
100
AcDbLine
 10
43.551097869873
 20
127.518852233887
 30
0.0
 11
43.551097869873
 21
127.947479248047
 31
0.0
  0
LINE
  5
C5
100
AcDbEntity
  8
0
  6
CONTINUOUS
 62
          15
100
AcDbLine
 10
43.551097869873
 20
127.518852233887
 30
0.0
 11
43.551097869873
 21
127.518852233887
 31
0.0
  0
LINE
  5
C6
100
AcDbEntity
  8
0
  6
CONTINUOUS
 62
          15
100
AcDbLine
 10
43.551097869873
 20
131.805099487305
 30
0.0
 11
43.551097869873
 21
131.376480102539
 31
0.0
  0
LINE
  5
C7
100
AcDbEntity
  8
0
  6
CONTINUOUS
 62
          15
100
AcDbLine
 10
43.551097869873
 20
131.805099487305
 30
0.0
 11
43.551097869873
 21
131.805099487305
 31
0.0
  0
LINE
  5
C8
100
AcDbEntity
  8
0
  6
CONTINUOUS
 62
          15
100
AcDbLine
 10
43.551097869873
 20
131.376480102539
 30
0.0
 11
43.551097869873
 21
131.805099487305
 31
0.0
  0
LINE
  5
C9
100
AcDbEntity
  8
0
  6
CONTINUOUS
 62
          15
100
AcDbLine
 10
43.551097869873
 20
131.376480102539
 30
0.0
 11
43.551097869873
 21
131.376480102539
 31
0.0
  0
LINE
  5
CA
100
AcDbEntity
  8
0
  6
CONTINUOUS
 62
          15
100
AcDbLine
 10
51.266338348389
 20
127.947479248047
 30
0.0
 11
51.266338348389
 21
131.376480102539
 31
0.0
  0
LINE
  5
CB
100
AcDbEntity
  8
0
  6
CONTINUOUS
 62
          15
100
AcDbLine
 10
51.266338348389
 20
127.947479248047
 30
0.0
 11
49.551830291748
 21
127.947479248047
 31
0.0
  0
LINE
  5
CC
100
AcDbEntity
  8
0
  6
CONTINUOUS
 62
          15
100
AcDbLine
 10
49.551830291748
 20
131.376480102539
 30
0.0
 11
49.551830291748
 21
127.947479248047
 31
0.0
  0
LINE
  5
CD
100
AcDbEntity
  8
0
  6
CONTINUOUS
 62
          15
100
AcDbLine
 10
49.551830291748
 20
131.376480102539
 30
0.0
 11
51.266338348389
 21
131.376480102539
 31
0.0
  0
LINE
  5
CE
100
AcDbEntity
  8
0
  6
CONTINUOUS
 62
          15
100
AcDbLine
 10
50.409130096436
 20
131.376480102539
 30
0.0
 11
50.409130096436
 21
131.805099487305
 31
0.0
  0
LINE
  5
CF
100
AcDbEntity
  8
0
  6
CONTINUOUS
 62
          15
100
AcDbLine
 10
50.409130096436
 20
131.376480102539
 30
0.0
 11
50.409130096436
 21
131.376480102539
 31
0.0
  0
LINE
  5
D0
100
AcDbEntity
  8
0
  6
CONTINUOUS
 62
          15
100
AcDbLine
 10
50.409130096436
 20
131.805099487305
 30
0.0
 11
50.409130096436
 21
131.376480102539
 31
0.0
  0
LINE
  5
D1
100
AcDbEntity
  8
0
  6
CONTINUOUS
 62
          15
100
AcDbLine
 10
50.409130096436
 20
131.805099487305
 30
0.0
 11
50.409130096436
 21
131.805099487305
 31
0.0
  0
LINE
  5
D2
100
AcDbEntity
  8
0
  6
CONTINUOUS
 62
          15
100
AcDbLine
 10
50.409130096436
 20
127.518852233887
 30
0.0
 11
50.409130096436
 21
127.947479248047
 31
0.0
  0
LINE
  5
D3
100
AcDbEntity
  8
0
  6
CONTINUOUS
 62
          15
100
AcDbLine
 10
50.409130096436
 20
127.518852233887
 30
0.0
 11
50.409130096436
 21
127.518852233887
 31
0.0
  0
LINE
  5
D4
100
AcDbEntity
  8
0
  6
CONTINUOUS
 62
          15
100
AcDbLine
 10
50.409130096436
 20
127.947479248047
 30
0.0
 11
50.409130096436
 21
127.518852233887
 31
0.0
  0
LINE
  5
D5
100
AcDbEntity
  8
0
  6
CONTINUOUS
 62
          15
100
AcDbLine
 10
50.409130096436
 20
127.947479248047
 30
0.0
 11
50.409130096436
 21
127.947479248047
 31
0.0
  0
LINE
  5
D6
100
AcDbEntity
  8
0
  6
CONTINUOUS
 62
          15
100
AcDbLine
 10
54.69535446167
 20
127.947479248047
 30
0.0
 11
54.69535446167
 21
131.376480102539
 31
0.0
  0
LINE
  5
D7
100
AcDbEntity
  8
0
  6
CONTINUOUS
 62
          15
100
AcDbLine
 10
54.69535446167
 20
127.947479248047
 30
0.0
 11
52.980846405029
 21
127.947479248047
 31
0.0
  0
LINE
  5
D8
100
AcDbEntity
  8
0
  6
CONTINUOUS
 62
          15
100
AcDbLine
 10
52.980846405029
 20
131.376480102539
 30
0.0
 11
52.980846405029
 21
127.947479248047
 31
0.0
  0
LINE
  5
D9
100
AcDbEntity
  8
0
  6
CONTINUOUS
 62
          15
100
AcDbLine
 10
52.980846405029
 20
131.376480102539
 30
0.0
 11
54.69535446167
 21
131.376480102539
 31
0.0
  0
LINE
  5
DA
100
AcDbEntity
  8
0
  6
CONTINUOUS
 62
          15
100
AcDbLine
 10
53.83810043335
 20
131.376480102539
 30
0.0
 11
53.83810043335
 21
131.805099487305
 31
0.0
  0
LINE
  5
DB
100
AcDbEntity
  8
0
  6
CONTINUOUS
 62
          15
100
AcDbLine
 10
53.83810043335
 20
131.376480102539
 30
0.0
 11
53.83810043335
 21
131.376480102539
 31
0.0
  0
LINE
  5
DC
100
AcDbEntity
  8
0
  6
CONTINUOUS
 62
          15
100
AcDbLine
 10
53.83810043335
 20
131.805099487305
 30
0.0
 11
53.83810043335
 21
131.376480102539
 31
0.0
  0
LINE
  5
DD
100
AcDbEntity
  8
0
  6
CONTINUOUS
 62
          15
100
AcDbLine
 10
53.83810043335
 20
131.805099487305
 30
0.0
 11
53.83810043335
 21
131.805099487305
 31
0.0
  0
LINE
  5
DE
100
AcDbEntity
  8
0
  6
CONTINUOUS
 62
          15
100
AcDbLine
 10
53.83810043335
 20
127.518852233887
 30
0.0
 11
53.83810043335
 21
127.947479248047
 31
0.0
  0
LINE
  5
DF
100
AcDbEntity
  8
0
  6
CONTINUOUS
 62
          15
100
AcDbLine
 10
53.83810043335
 20
127.518852233887
 30
0.0
 11
53.83810043335
 21
127.518852233887
 31
0.0
  0
LINE
  5
E0
100
AcDbEntity
  8
0
  6
CONTINUOUS
 62
          15
100
AcDbLine
 10
53.83810043335
 20
127.947479248047
 30
0.0
 11
53.83810043335
 21
127.518852233887
 31
0.0
  0
LINE
  5
E1
100
AcDbEntity
  8
0
  6
CONTINUOUS
 62
          15
100
AcDbLine
 10
53.83810043335
 20
127.947479248047
 30
0.0
 11
53.83810043335
 21
127.947479248047
 31
0.0
  0
LINE
  5
E2
100
AcDbEntity
  8
0
  6
CONTINUOUS
 62
          15
100
AcDbLine
 10
58.124370574951
 20
127.947479248047
 30
0.0
 11
58.124370574951
 21
131.376480102539
 31
0.0
  0
LINE
  5
E3
100
AcDbEntity
  8
0
  6
CONTINUOUS
 62
          15
100
AcDbLine
 10
58.124370574951
 20
127.947479248047
 30
0.0
 11
56.409862518311
 21
127.947479248047
 31
0.0
  0
LINE
  5
E4
100
AcDbEntity
  8
0
  6
CONTINUOUS
 62
          15
100
AcDbLine
 10
56.409862518311
 20
131.376480102539
 30
0.0
 11
56.409862518311
 21
127.947479248047
 31
0.0
  0
LINE
  5
E5
100
AcDbEntity
  8
0
  6
CONTINUOUS
 62
          15
100
AcDbLine
 10
56.409862518311
 20
131.376480102539
 30
0.0
 11
58.124370574951
 21
131.376480102539
 31
0.0
  0
LINE
  5
E6
100
AcDbEntity
  8
0
  6
CONTINUOUS
 62
          15
100
AcDbLine
 10
57.267070770264
 20
131.376480102539
 30
0.0
 11
57.267070770264
 21
131.805099487305
 31
0.0
  0
LINE
  5
E7
100
AcDbEntity
  8
0
  6
CONTINUOUS
 62
          15
100
AcDbLine
 10
57.267070770264
 20
131.376480102539
 30
0.0
 11
57.267070770264
 21
131.376480102539
 31
0.0
  0
LINE
  5
E8
100
AcDbEntity
  8
0
  6
CONTINUOUS
 62
          15
100
AcDbLine
 10
57.267070770264
 20
131.805099487305
 30
0.0
 11
57.267070770264
 21
131.376480102539
 31
0.0
  0
LINE
  5
E9
100
AcDbEntity
  8
0
  6
CONTINUOUS
 62
          15
100
AcDbLine
 10
57.267070770264
 20
131.805099487305
 30
0.0
 11
57.267070770264
 21
131.805099487305
 31
0.0
  0
LINE
  5
EA
100
AcDbEntity
  8
0
  6
CONTINUOUS
 62
          15
100
AcDbLine
 10
57.267070770264
 20
127.518852233887
 30
0.0
 11
57.267070770264
 21
127.947479248047
 31
0.0
  0
LINE
  5
EB
100
AcDbEntity
  8
0
  6
CONTINUOUS
 62
          15
100
AcDbLine
 10
57.267070770264
 20
127.518852233887
 30
0.0
 11
57.267070770264
 21
127.518852233887
 31
0.0
  0
LINE
  5
EC
100
AcDbEntity
  8
0
  6
CONTINUOUS
 62
          15
100
AcDbLine
 10
57.267070770264
 20
127.947479248047
 30
0.0
 11
57.267070770264
 21
127.518852233887
 31
0.0
  0
LINE
  5
ED
100
AcDbEntity
  8
0
  6
CONTINUOUS
 62
          15
100
AcDbLine
 10
57.267070770264
 20
127.947479248047
 30
0.0
 11
57.267070770264
 21
127.947479248047
 31
0.0
  0
LINE
  5
EE
100
AcDbEntity
  8
0
  6
CONTINUOUS
 62
          15
100
AcDbLine
 10
61.553386688232
 20
127.947479248047
 30
0.0
 11
61.553386688232
 21
131.376480102539
 31
0.0
  0
LINE
  5
EF
100
AcDbEntity
  8
0
  6
CONTINUOUS
 62
          15
100
AcDbLine
 10
61.553386688232
 20
127.947479248047
 30
0.0
 11
59.838878631592
 21
127.947479248047
 31
0.0
  0
LINE
  5
F0
100
AcDbEntity
  8
0
  6
CONTINUOUS
 62
          15
100
AcDbLine
 10
59.838878631592
 20
131.376480102539
 30
0.0
 11
59.838878631592
 21
127.947479248047
 31
0.0
  0
LINE
  5
F1
100
AcDbEntity
  8
0
  6
CONTINUOUS
 62
          15
100
AcDbLine
 10
59.838878631592
 20
131.376480102539
 30
0.0
 11
61.553386688232
 21
131.376480102539
 31
0.0
  0
LINE
  5
F2
100
AcDbEntity
  8
0
  6
CONTINUOUS
 62
          15
100
AcDbLine
 10
60.696086883545
 20
131.376480102539
 30
0.0
 11
60.696086883545
 21
131.805099487305
 31
0.0
  0
LINE
  5
F3
100
AcDbEntity
  8
0
  6
CONTINUOUS
 62
          15
100
AcDbLine
 10
60.696086883545
 20
131.376480102539
 30
0.0
 11
60.696086883545
 21
131.376480102539
 31
0.0
  0
LINE
  5
F4
100
AcDbEntity
  8
0
  6
CONTINUOUS
 62
          15
100
AcDbLine
 10
60.696086883545
 20
131.805099487305
 30
0.0
 11
60.696086883545
 21
131.376480102539
 31
0.0
  0
LINE
  5
F5
100
AcDbEntity
  8
0
  6
CONTINUOUS
 62
          15
100
AcDbLine
 10
60.696086883545
 20
131.805099487305
 30
0.0
 11
60.696086883545
 21
131.805099487305
 31
0.0
  0
LINE
  5
F6
100
AcDbEntity
  8
0
  6
CONTINUOUS
 62
          15
100
AcDbLine
 10
60.696086883545
 20
127.518852233887
 30
0.0
 11
60.696086883545
 21
127.947479248047
 31
0.0
  0
LINE
  5
F7
100
AcDbEntity
  8
0
  6
CONTINUOUS
 62
          15
100
AcDbLine
 10
60.696086883545
 20
127.518852233887
 30
0.0
 11
60.696086883545
 21
127.518852233887
 31
0.0
  0
LINE
  5
F8
100
AcDbEntity
  8
0
  6
CONTINUOUS
 62
          15
100
AcDbLine
 10
60.696086883545
 20
127.947479248047
 30
0.0
 11
60.696086883545
 21
127.518852233887
 31
0.0
  0
LINE
  5
F9
100
AcDbEntity
  8
0
  6
CONTINUOUS
 62
          15
100
AcDbLine
 10
60.696086883545
 20
127.947479248047
 30
0.0
 11
60.696086883545
 21
127.947479248047
 31
0.0
  0
LINE
  5
FA
100
AcDbEntity
  8
0
  6
CONTINUOUS
 62
          15
100
AcDbLine
 10
64.982360839844
 20
127.947479248047
 30
0.0
 11
64.982360839844
 21
131.376480102539
 31
0.0
  0
LINE
  5
FB
100
AcDbEntity
  8
0
  6
CONTINUOUS
 62
          15
100
AcDbLine
 10
64.982360839844
 20
127.947479248047
 30
0.0
 11
63.267848968506
 21
127.947479248047
 31
0.0
  0
LINE
  5
FC
100
AcDbEntity
  8
0
  6
CONTINUOUS
 62
          15
100
AcDbLine
 10
63.267848968506
 20
131.376480102539
 30
0.0
 11
63.267848968506
 21
127.947479248047
 31
0.0
  0
LINE
  5
FD
100
AcDbEntity
  8
0
  6
CONTINUOUS
 62
          15
100
AcDbLine
 10
63.267848968506
 20
131.376480102539
 30
0.0
 11
64.982360839844
 21
131.376480102539
 31
0.0
  0
LINE
  5
FE
100
AcDbEntity
  8
0
  6
CONTINUOUS
 62
          15
100
AcDbLine
 10
64.125106811523
 20
131.376480102539
 30
0.0
 11
64.125106811523
 21
131.805099487305
 31
0.0
  0
LINE
  5
FF
100
AcDbEntity
  8
0
  6
CONTINUOUS
 62
          15
100
AcDbLine
 10
64.125106811523
 20
131.376480102539
 30
0.0
 11
64.125106811523
 21
131.376480102539
 31
0.0
  0
LINE
  5
100
100
AcDbEntity
  8
0
  6
CONTINUOUS
 62
          15
100
AcDbLine
 10
64.125106811523
 20
131.805099487305
 30
0.0
 11
64.125106811523
 21
131.376480102539
 31
0.0
  0
LINE
  5
101
100
AcDbEntity
  8
0
  6
CONTINUOUS
 62
          15
100
AcDbLine
 10
64.125106811523
 20
131.805099487305
 30
0.0
 11
64.125106811523
 21
131.805099487305
 31
0.0
  0
LINE
  5
102
100
AcDbEntity
  8
0
  6
CONTINUOUS
 62
          15
100
AcDbLine
 10
64.125106811523
 20
127.518852233887
 30
0.0
 11
64.125106811523
 21
127.947479248047
 31
0.0
  0
LINE
  5
103
100
AcDbEntity
  8
0
  6
CONTINUOUS
 62
          15
100
AcDbLine
 10
64.125106811523
 20
127.518852233887
 30
0.0
 11
64.125106811523
 21
127.518852233887
 31
0.0
  0
LINE
  5
104
100
AcDbEntity
  8
0
  6
CONTINUOUS
 62
          15
100
AcDbLine
 10
64.125106811523
 20
127.947479248047
 30
0.0
 11
64.125106811523
 21
127.518852233887
 31
0.0
  0
LINE
  5
105
100
AcDbEntity
  8
0
  6
CONTINUOUS
 62
          15
100
AcDbLine
 10
64.125106811523
 20
127.947479248047
 30
0.0
 11
64.125106811523
 21
127.947479248047
 31
0.0
  0
LINE
  5
106
100
AcDbEntity
  8
0
  6
CONTINUOUS
 62
          15
100
AcDbLine
 10
68.411331176758
 20
127.947479248047
 30
0.0
 11
68.411331176758
 21
131.376480102539
 31
0.0
  0
LINE
  5
107
100
AcDbEntity
  8
0
  6
CONTINUOUS
 62
          15
100
AcDbLine
 10
68.411331176758
 20
127.947479248047
 30
0.0
 11
66.696823120117
 21
127.947479248047
 31
0.0
  0
LINE
  5
108
100
AcDbEntity
  8
0
  6
CONTINUOUS
 62
          15
100
AcDbLine
 10
66.696823120117
 20
131.376480102539
 30
0.0
 11
66.696823120117
 21
127.947479248047
 31
0.0
  0
LINE
  5
109
100
AcDbEntity
  8
0
  6
CONTINUOUS
 62
          15
100
AcDbLine
 10
66.696823120117
 20
131.376480102539
 30
0.0
 11
68.411331176758
 21
131.376480102539
 31
0.0
  0
LINE
  5
10A
100
AcDbEntity
  8
0
  6
CONTINUOUS
 62
          15
100
AcDbLine
 10
67.554122924805
 20
131.376480102539
 30
0.0
 11
67.554122924805
 21
131.805099487305
 31
0.0
  0
LINE
  5
10B
100
AcDbEntity
  8
0
  6
CONTINUOUS
 62
          15
100
AcDbLine
 10
67.554122924805
 20
131.376480102539
 30
0.0
 11
67.554122924805
 21
131.376480102539
 31
0.0
  0
LINE
  5
10C
100
AcDbEntity
  8
0
  6
CONTINUOUS
 62
          15
100
AcDbLine
 10
67.554122924805
 20
131.805099487305
 30
0.0
 11
67.554122924805
 21
131.376480102539
 31
0.0
  0
LINE
  5
10D
100
AcDbEntity
  8
0
  6
CONTINUOUS
 62
          15
100
AcDbLine
 10
67.554122924805
 20
131.805099487305
 30
0.0
 11
67.554122924805
 21
131.805099487305
 31
0.0
  0
LINE
  5
10E
100
AcDbEntity
  8
0
  6
CONTINUOUS
 62
          15
100
AcDbLine
 10
67.554122924805
 20
127.518852233887
 30
0.0
 11
67.554122924805
 21
127.947479248047
 31
0.0
  0
LINE
  5
10F
100
AcDbEntity
  8
0
  6
CONTINUOUS
 62
          15
100
AcDbLine
 10
67.554122924805
 20
127.518852233887
 30
0.0
 11
67.554122924805
 21
127.518852233887
 31
0.0
  0
LINE
  5
110
100
AcDbEntity
  8
0
  6
CONTINUOUS
 62
          15
100
AcDbLine
 10
67.554122924805
 20
127.947479248047
 30
0.0
 11
67.554122924805
 21
127.518852233887
 31
0.0
  0
LINE
  5
111
100
AcDbEntity
  8
0
  6
CONTINUOUS
 62
          15
100
AcDbLine
 10
67.554122924805
 20
127.947479248047
 30
0.0
 11
67.554122924805
 21
127.947479248047
 31
0.0
  0
LINE
  5
112
100
AcDbEntity
  8
0
  6
CONTINUOUS
 62
          15
100
AcDbLine
 10
96.92350769043
 20
130.519226074219
 30
0.0
 11
96.92350769043
 21
127.090225219727
 31
0.0
  0
LINE
  5
113
100
AcDbEntity
  8
0
  6
CONTINUOUS
 62
          15
100
AcDbLine
 10
96.92350769043
 20
130.519226074219
 30
0.0
 11
98.63801574707
 21
130.519226074219
 31
0.0
  0
LINE
  5
114
100
AcDbEntity
  8
0
  6
CONTINUOUS
 62
          15
100
AcDbLine
 10
98.63801574707
 20
127.090225219727
 30
0.0
 11
98.63801574707
 21
130.519226074219
 31
0.0
  0
LINE
  5
115
100
AcDbEntity
  8
0
  6
CONTINUOUS
 62
          15
100
AcDbLine
 10
98.63801574707
 20
127.090225219727
 30
0.0
 11
96.92350769043
 21
127.090225219727
 31
0.0
  0
LINE
  5
116
100
AcDbEntity
  8
0
  6
CONTINUOUS
 62
          15
100
AcDbLine
 10
97.780715942383
 20
127.090225219727
 30
0.0
 11
97.780715942383
 21
126.661598205566
 31
0.0
  0
LINE
  5
117
100
AcDbEntity
  8
0
  6
CONTINUOUS
 62
          15
100
AcDbLine
 10
97.780715942383
 20
127.090225219727
 30
0.0
 11
97.780715942383
 21
127.090225219727
 31
0.0
  0
LINE
  5
118
100
AcDbEntity
  8
0
  6
CONTINUOUS
 62
          15
100
AcDbLine
 10
97.780715942383
 20
126.661598205566
 30
0.0
 11
97.780715942383
 21
127.090225219727
 31
0.0
  0
LINE
  5
119
100
AcDbEntity
  8
0
  6
CONTINUOUS
 62
          15
100
AcDbLine
 10
97.780715942383
 20
126.661598205566
 30
0.0
 11
97.780715942383
 21
126.661598205566
 31
0.0
  0
LINE
  5
11A
100
AcDbEntity
  8
0
  6
CONTINUOUS
 62
          15
100
AcDbLine
 10
97.780715942383
 20
130.947845458984
 30
0.0
 11
97.780715942383
 21
130.519226074219
 31
0.0
  0
LINE
  5
11B
100
AcDbEntity
  8
0
  6
CONTINUOUS
 62
          15
100
AcDbLine
 10
97.780715942383
 20
130.947845458984
 30
0.0
 11
97.780715942383
 21
130.947845458984
 31
0.0
  0
LINE
  5
11C
100
AcDbEntity
  8
0
  6
CONTINUOUS
 62
          15
100
AcDbLine
 10
97.780715942383
 20
130.519226074219
 30
0.0
 11
97.780715942383
 21
130.947845458984
 31
0.0
  0
LINE
  5
11D
100
AcDbEntity
  8
0
  6
CONTINUOUS
 62
          15
100
AcDbLine
 10
97.780715942383
 20
130.519226074219
 30
0.0
 11
97.780715942383
 21
130.519226074219
 31
0.0
  0
LINE
  5
11E
100
AcDbEntity
  8
0
  6
CONTINUOUS
 62
          15
100
AcDbLine
 10
96.92350769043
 20
129.661972045898
 30
0.0
 11
98.63801574707
 21
129.661972045898
 31
0.0
  0
LINE
  5
11F
100
AcDbEntity
  8
0
  6
CONTINUOUS
 62
          15
100
AcDbLine
 10
95.431838989258
 20
140.377593994141
 30
0.0
 11
81.715866088867
 21
140.377593994141
 31
0.0
  0
LINE
  5
120
100
AcDbEntity
  8
0
  6
CONTINUOUS
 62
          15
100
AcDbLine
 10
95.431838989258
 20
140.377593994141
 30
0.0
 11
95.431838989258
 21
135.234085083008
 31
0.0
  0
LINE
  5
121
100
AcDbEntity
  8
0
  6
CONTINUOUS
 62
          15
100
AcDbLine
 10
81.715866088867
 20
135.234085083008
 30
0.0
 11
95.431838989258
 21
135.234085083008
 31
0.0
  0
LINE
  5
122
100
AcDbEntity
  8
0
  6
CONTINUOUS
 62
          15
100
AcDbLine
 10
81.715866088867
 20
135.234085083008
 30
0.0
 11
81.715866088867
 21
140.377593994141
 31
0.0
  0
LINE
  5
123
100
AcDbEntity
  8
0
  6
CONTINUOUS
 62
          15
100
AcDbLine
 10
109.130699157715
 20
129.644821166992
 30
0.0
 11
116.211570739746
 21
129.644821166992
 31
0.0
  0
LINE
  5
124
100
AcDbEntity
  8
0
  6
CONTINUOUS
 62
          15
100
AcDbLine
 10
109.130699157715
 20
129.644821166992
 30
0.0
 11
109.130699157715
 21
143.789428710938
 31
0.0
  0
LINE
  5
125
100
AcDbEntity
  8
0
  6
CONTINUOUS
 62
          15
100
AcDbLine
 10
116.211570739746
 20
141.823638916016
 30
0.0
 11
116.211570739746
 21
129.644821166992
 31
0.0
  0
LINE
  5
126
100
AcDbEntity
  8
0
  6
CONTINUOUS
 62
          15
100
AcDbLine
 10
101.209732055664
 20
131.582214355469
 30
0.0
 11
101.209732055664
 21
128.153198242188
 31
0.0
  0
LINE
  5
127
100
AcDbEntity
  8
0
  6
CONTINUOUS
 62
          15
100
AcDbLine
 10
101.209732055664
 20
131.582214355469
 30
0.0
 11
102.924240112305
 21
131.582214355469
 31
0.0
  0
LINE
  5
128
100
AcDbEntity
  8
0
  6
CONTINUOUS
 62
          15
100
AcDbLine
 10
102.924240112305
 20
128.153198242188
 30
0.0
 11
102.924240112305
 21
131.582214355469
 31
0.0
  0
LINE
  5
129
100
AcDbEntity
  8
0
  6
CONTINUOUS
 62
          15
100
AcDbLine
 10
102.924240112305
 20
128.153198242188
 30
0.0
 11
101.209732055664
 21
128.153198242188
 31
0.0
  0
LINE
  5
12A
100
AcDbEntity
  8
0
  6
CONTINUOUS
 62
          15
100
AcDbLine
 10
102.067031860352
 20
128.153198242188
 30
0.0
 11
102.067031860352
 21
127.724594116211
 31
0.0
  0
LINE
  5
12B
100
AcDbEntity
  8
0
  6
CONTINUOUS
 62
          15
100
AcDbLine
 10
102.067031860352
 20
128.153198242188
 30
0.0
 11
102.067031860352
 21
128.153198242188
 31
0.0
  0
LINE
  5
12C
100
AcDbEntity
  8
0
  6
CONTINUOUS
 62
          15
100
AcDbLine
 10
102.067031860352
 20
127.724594116211
 30
0.0
 11
102.067031860352
 21
128.153198242188
 31
0.0
  0
LINE
  5
12D
100
AcDbEntity
  8
0
  6
CONTINUOUS
 62
          15
100
AcDbLine
 10
102.067031860352
 20
127.724594116211
 30
0.0
 11
102.067031860352
 21
127.724594116211
 31
0.0
  0
LINE
  5
12E
100
AcDbEntity
  8
0
  6
CONTINUOUS
 62
          15
100
AcDbLine
 10
102.067031860352
 20
132.010818481445
 30
0.0
 11
102.067031860352
 21
131.582214355469
 31
0.0
  0
LINE
  5
12F
100
AcDbEntity
  8
0
  6
CONTINUOUS
 62
          15
100
AcDbLine
 10
102.067031860352
 20
132.010818481445
 30
0.0
 11
102.067031860352
 21
132.010818481445
 31
0.0
  0
LINE
  5
130
100
AcDbEntity
  8
0
  6
CONTINUOUS
 62
          15
100
AcDbLine
 10
102.067031860352
 20
131.582214355469
 30
0.0
 11
102.067031860352
 21
132.010818481445
 31
0.0
  0
LINE
  5
131
100
AcDbEntity
  8
0
  6
CONTINUOUS
 62
          15
100
AcDbLine
 10
102.067031860352
 20
131.582214355469
 30
0.0
 11
102.067031860352
 21
131.582214355469
 31
0.0
  0
LINE
  5
132
100
AcDbEntity
  8
0
  6
CONTINUOUS
 62
          15
100
AcDbLine
 10
105.718887329102
 20
131.582214355469
 30
0.0
 11
105.718887329102
 21
128.153198242188
 31
0.0
  0
LINE
  5
133
100
AcDbEntity
  8
0
  6
CONTINUOUS
 62
          15
100
AcDbLine
 10
105.718887329102
 20
131.582214355469
 30
0.0
 11
107.433403015137
 21
131.582214355469
 31
0.0
  0
LINE
  5
134
100
AcDbEntity
  8
0
  6
CONTINUOUS
 62
          15
100
AcDbLine
 10
107.433403015137
 20
128.153198242188
 30
0.0
 11
107.433403015137
 21
131.582214355469
 31
0.0
  0
LINE
  5
135
100
AcDbEntity
  8
0
  6
CONTINUOUS
 62
          15
100
AcDbLine
 10
107.433403015137
 20
128.153198242188
 30
0.0
 11
105.718887329102
 21
128.153198242188
 31
0.0
  0
LINE
  5
136
100
AcDbEntity
  8
0
  6
CONTINUOUS
 62
          15
100
AcDbLine
 10
106.576103210449
 20
128.153198242188
 30
0.0
 11
106.576103210449
 21
127.724594116211
 31
0.0
  0
LINE
  5
137
100
AcDbEntity
  8
0
  6
CONTINUOUS
 62
          15
100
AcDbLine
 10
106.576103210449
 20
128.153198242188
 30
0.0
 11
106.576103210449
 21
128.153198242188
 31
0.0
  0
LINE
  5
138
100
AcDbEntity
  8
0
  6
CONTINUOUS
 62
          15
100
AcDbLine
 10
106.576103210449
 20
127.724594116211
 30
0.0
 11
106.576103210449
 21
128.153198242188
 31
0.0
  0
LINE
  5
139
100
AcDbEntity
  8
0
  6
CONTINUOUS
 62
          15
100
AcDbLine
 10
106.576103210449
 20
127.724594116211
 30
0.0
 11
106.576103210449
 21
127.724594116211
 31
0.0
  0
LINE
  5
13A
100
AcDbEntity
  8
0
  6
CONTINUOUS
 62
          15
100
AcDbLine
 10
106.576103210449
 20
132.010818481445
 30
0.0
 11
106.576103210449
 21
131.582214355469
 31
0.0
  0
LINE
  5
13B
100
AcDbEntity
  8
0
  6
CONTINUOUS
 62
          15
100
AcDbLine
 10
106.576103210449
 20
132.010818481445
 30
0.0
 11
106.576103210449
 21
132.010818481445
 31
0.0
  0
LINE
  5
13C
100
AcDbEntity
  8
0
  6
CONTINUOUS
 62
          15
100
AcDbLine
 10
106.576103210449
 20
131.582214355469
 30
0.0
 11
106.576103210449
 21
132.010818481445
 31
0.0
  0
LINE
  5
13D
100
AcDbEntity
  8
0
  6
CONTINUOUS
 62
          15
100
AcDbLine
 10
106.576103210449
 20
131.582214355469
 30
0.0
 11
106.576103210449
 21
131.582214355469
 31
0.0
  0
ARC
  5
13E
100
AcDbEntity
  8
0
  6
CONTINUOUS
 62
          15
100
AcDbCircle
 10
105.924613952637
 20
137.377227783203
 30
0.0
 40
2.366009950638
100
AcDbArc
 50
90.000002504478
 51
269.999997495521
  0
LINE
  5
13F
100
AcDbEntity
  8
0
  6
CONTINUOUS
 62
          15
100
AcDbLine
 10
107.433403015137
 20
135.011199951172
 30
0.0
 11
107.433403015137
 21
139.72607421875
 31
0.0
  0
LINE
  5
140
100
AcDbEntity
  8
0
  6
CONTINUOUS
 62
          15
100
AcDbLine
 10
107.433403015137
 20
135.011199951172
 30
0.0
 11
105.924613952637
 21
135.011199951172
 31
0.0
  0
LINE
  5
141
100
AcDbEntity
  8
0
  6
CONTINUOUS
 62
          15
100
AcDbLine
 10
107.433403015137
 20
139.72607421875
 30
0.0
 11
105.701766967773
 21
139.72607421875
 31
0.0
  0
LINE
  5
142
100
AcDbEntity
  8
0
  6
CONTINUOUS
 62
          15
100
AcDbLine
 10
129.070343017578
 20
146.464050292969
 30
0.0
 11
129.070343017578
 21
146.464050292969
 31
0.0
  0
LINE
  5
143
100
AcDbEntity
  8
0
  6
CONTINUOUS
 62
          15
100
AcDbLine
 10
129.070343017578
 20
145.606796264648
 30
0.0
 11
129.070343017578
 21
145.606796264648
 31
0.0
  0
LINE
  5
144
100
AcDbEntity
  8
0
  6
CONTINUOUS
 62
          15
100
AcDbLine
 10
129.070343017578
 20
138.748825073242
 30
0.0
 11
129.070343017578
 21
138.748825073242
 31
0.0
  0
LINE
  5
145
100
AcDbEntity
  8
0
  6
CONTINUOUS
 62
          15
100
AcDbLine
 10
129.070343017578
 20
137.891571044922
 30
0.0
 11
129.070343017578
 21
137.891571044922
 31
0.0
  0
LINE
  5
146
100
AcDbEntity
  8
0
  6
CONTINUOUS
 62
          15
100
AcDbLine
 10
92.002914428711
 20
115.26016998291
 30
0.0
 11
92.002914428711
 21
109.722328186035
 31
0.0
  0
LINE
  5
147
100
AcDbEntity
  8
0
  6
CONTINUOUS
 62
          15
100
AcDbLine
 10
24.48588180542
 20
112.722717285156
 30
0.0
 11
24.48588180542
 21
109.602325439453
 31
0.0
  0
LINE
  5
148
100
AcDbEntity
  8
0
  6
CONTINUOUS
 62
          15
100
AcDbLine
 10
24.48588180542
 20
109.602325439453
 30
0.0
 11
115.697227478027
 21
109.602325439453
 31
0.0
  0
LINE
  5
149
100
AcDbEntity
  8
0
  6
CONTINUOUS
 62
          15
100
AcDbLine
 10
115.697227478027
 20
109.602325439453
 30
0.0
 11
115.697227478027
 21
125.097526550293
 31
0.0
  0
LINE
  5
14A
100
AcDbEntity
  8
0
  6
CONTINUOUS
 62
          15
100
AcDbLine
 10
85.350601196289
 20
113.526596069336
 30
0.0
 11
85.350601196289
 21
109.602325439453
 31
0.0
  0
TEXT
  5
14B
100
AcDbEntity
  8
0
  6
CONTINUOUS
 62
          15
100
AcDbText
 10
107.004753112793
 20
110.579578846693
 30
0.0
 40
1.600000023842
  1
RELAY
  7
SIMPLEX
100
AcDbText
  0
TEXT
  5
14C
100
AcDbEntity
  8
0
  6
CONTINUOUS
 62
          15
100
AcDbText
 10
132.019348144531
 20
119.786446802318
 30
0.0
 40
1.234439969063
  1
N
  7
TXT
100
AcDbText
  0
TEXT
  5
14D
100
AcDbEntity
  8
0
  6
CONTINUOUS
 62
          15
100
AcDbText
 10
125.058403015137
 20
119.786446802318
 30
0.0
 40
1.234439969063
  1
L
  7
TXT
100
AcDbText
  0
TEXT
  5
14E
100
AcDbEntity
  8
0
  6
CONTINUOUS
 62
          15
100
AcDbText
 10
124.23543548584
 20
116.151711694896
 30
0.0
 40
1.234439969063
  1
240 V ac
  7
TXT
100
AcDbText
  0
LINE
  5
14F
100
AcDbEntity
  8
0
  6
CONTINUOUS
 62
          15
100
AcDbLine
 10
129.165466308594
 20
119.553260803223
 30
0.0
 11
129.165466308594
 21
121.185577392578
 31
0.0
  0
LINE
  5
150
100
AcDbEntity
  8
0
  6
CONTINUOUS
 62
          15
100
AcDbLine
 10
127.891960144043
 20
119.553260803223
 30
0.0
 11
130.478698730469
 21
119.553260803223
 31
0.0
  0
LINE
  5
151
100
AcDbEntity
  8
0
  6
CONTINUOUS
 62
          15
100
AcDbLine
 10
128.307250976563
 20
118.956085205078
 30
0.0
 11
130.050415039063
 21
118.956085205078
 31
0.0
  0
LINE
  5
152
100
AcDbEntity
  8
0
  6
CONTINUOUS
 62
          15
100
AcDbLine
 10
128.77783203125
 20
118.279258728027
 30
0.0
 11
129.565093994141
 21
118.279258728027
 31
0.0
  0
ELLIPSE
  5
153
100
AcDbEntity
  8
0
  6
CONTINUOUS
 62
          15
100
AcDbEllipse
 10
83.858108520508
 20
118.435974121094
 30
0.0
 11
71.25
 21
0.0
 31
0.0
210
0.0
220
0.0
230
1.0
 40
0.368421052632
 41
2.3980727195739746
 42
1.9600454568862915
  0
LINE
  5
154
100
AcDbEntity
  8
0
  6
CONTINUOUS
 62
          15
100
AcDbLine
 10
134.008193969727
 20
121.689552307129
 30
0.0
 11
123.926902770996
 21
121.689552307129
 31
0.0
  0
LINE
  5
155
100
AcDbEntity
  8
0
  6
CONTINUOUS
 62
          15
100
AcDbLine
 10
127.150199890137
 20
129.919158935547
 30
0.0
 11
127.150199890137
 21
121.689552307129
 31
0.0
  0
LINE
  5
156
100
AcDbEntity
  8
0
  6
CONTINUOUS
 62
          15
100
AcDbLine
 10
130.579177856445
 20
129.919158935547
 30
0.0
 11
130.579177856445
 21
121.689552307129
 31
0.0
  0
LINE
  5
157
100
AcDbEntity
  8
0
  6
CONTINUOUS
 62
          15
100
AcDbLine
 10
134.008193969727
 20
129.919158935547
 30
0.0
 11
134.008193969727
 21
121.689552307129
 31
0.0
  0
LINE
  5
158
100
AcDbEntity
  8
0
  6
CONTINUOUS
 62
          15
100
AcDbLine
 10
140.866180419922
 20
129.919158935547
 30
0.0
 11
140.866180419922
 21
119.152099609375
 31
0.0
  0
LINE
  5
159
100
AcDbEntity
  8
0
  6
CONTINUOUS
 62
          15
100
AcDbLine
 10
125.866195678711
 20
127.469627380371
 30
0.0
 11
125.022972106934
 21
128.312850952148
 31
0.0
  0
LINE
  5
15A
100
AcDbEntity
  8
0
  6
CONTINUOUS
 62
          15
100
AcDbLine
 10
124.864265441895
 20
125.093994140625
 30
0.0
 11
126.02490234375
 21
125.093994140625
 31
0.0
  0
LINE
  5
15B
100
AcDbEntity
  8
0
  6
CONTINUOUS
 62
          15
100
AcDbLine
 10
126.02490234375
 20
125.093994140625
 30
0.0
 11
126.02490234375
 21
123.035652160645
 31
0.0
  0
LINE
  5
15C
100
AcDbEntity
  8
0
  6
CONTINUOUS
 62
          15
100
AcDbLine
 10
126.02490234375
 20
123.035652160645
 30
0.0
 11
124.864265441895
 21
123.035652160645
 31
0.0
  0
LINE
  5
15D
100
AcDbEntity
  8
0
  6
CONTINUOUS
 62
          15
100
AcDbLine
 10
124.864265441895
 20
123.035652160645
 30
0.0
 11
124.864265441895
 21
125.093994140625
 31
0.0
  0
LINE
  5
15E
100
AcDbEntity
  8
0
  6
CONTINUOUS
 62
          15
100
AcDbLine
 10
124.864265441895
 20
123.726463317871
 30
0.0
 11
126.02490234375
 21
123.726463317871
 31
0.0
  0
ELLIPSE
  5
15F
100
AcDbEntity
  8
0
  6
CONTINUOUS
 62
          15
100
AcDbEllipse
 10
125.44457244873
 20
127.891227722168
 30
0.0
 11
0.8444507718086235
 21
-0.0000000369121156
 31
0.0
210
0.0
220
0.0
230
1.0
 40
0.624739254181
 41
0.0
 42
6.2831853071795862
  0
LINE
  5
160
100
AcDbEntity
  8
0
  6
CONTINUOUS
 62
          15
100
AcDbLine
 10
129.117630004883
 20
127.469627380371
 30
0.0
 11
128.274398803711
 21
128.312850952148
 31
0.0
  0
LINE
  5
161
100
AcDbEntity
  8
0
  6
CONTINUOUS
 62
          15
100
AcDbLine
 10
128.115692138672
 20
125.093994140625
 30
0.0
 11
129.276336669922
 21
125.093994140625
 31
0.0
  0
LINE
  5
162
100
AcDbEntity
  8
0
  6
CONTINUOUS
 62
          15
100
AcDbLine
 10
129.276336669922
 20
125.093994140625
 30
0.0
 11
129.276336669922
 21
123.035652160645
 31
0.0
  0
LINE
  5
163
100
AcDbEntity
  8
0
  6
CONTINUOUS
 62
          15
100
AcDbLine
 10
129.276336669922
 20
123.035652160645
 30
0.0
 11
128.115692138672
 21
123.035652160645
 31
0.0
  0
LINE
  5
164
100
AcDbEntity
  8
0
  6
CONTINUOUS
 62
          15
100
AcDbLine
 10
128.115692138672
 20
123.035652160645
 30
0.0
 11
128.115692138672
 21
125.093994140625
 31
0.0
  0
LINE
  5
165
100
AcDbEntity
  8
0
  6
CONTINUOUS
 62
          15
100
AcDbLine
 10
128.115692138672
 20
123.726463317871
 30
0.0
 11
129.276336669922
 21
123.726463317871
 31
0.0
  0
ELLIPSE
  5
166
100
AcDbEntity
  8
0
  6
CONTINUOUS
 62
          15
100
AcDbEllipse
 10
128.696029663086
 20
127.891227722168
 30
0.0
 11
0.8444507718086235
 21
-0.0000000369121156
 31
0.0
210
0.0
220
0.0
230
1.0
 40
0.624739254181
 41
0.0
 42
6.2831853071795862
  0
LINE
  5
167
100
AcDbEntity
  8
0
  6
CONTINUOUS
 62
          15
100
AcDbLine
 10
132.567337036133
 20
127.469627380371
 30
0.0
 11
131.724090576172
 21
128.312850952148
 31
0.0
  0
LINE
  5
168
100
AcDbEntity
  8
0
  6
CONTINUOUS
 62
          15
100
AcDbLine
 10
131.565383911133
 20
125.093994140625
 30
0.0
 11
132.726043701172
 21
125.093994140625
 31
0.0
  0
LINE
  5
169
100
AcDbEntity
  8
0
  6
CONTINUOUS
 62
          15
100
AcDbLine
 10
132.726043701172
 20
125.093994140625
 30
0.0
 11
132.726043701172
 21
123.035652160645
 31
0.0
  0
LINE
  5
16A
100
AcDbEntity
  8
0
  6
CONTINUOUS
 62
          15
100
AcDbLine
 10
132.726043701172
 20
123.035652160645
 30
0.0
 11
131.565383911133
 21
123.035652160645
 31
0.0
  0
LINE
  5
16B
100
AcDbEntity
  8
0
  6
CONTINUOUS
 62
          15
100
AcDbLine
 10
131.565383911133
 20
123.035652160645
 30
0.0
 11
131.565383911133
 21
125.093994140625
 31
0.0
  0
LINE
  5
16C
100
AcDbEntity
  8
0
  6
CONTINUOUS
 62
          15
100
AcDbLine
 10
131.565383911133
 20
123.726463317871
 30
0.0
 11
132.726043701172
 21
123.726463317871
 31
0.0
  0
ELLIPSE
  5
16D
100
AcDbEntity
  8
0
  6
CONTINUOUS
 62
          15
100
AcDbEllipse
 10
132.145706176758
 20
127.891227722168
 30
0.0
 11
0.8444507718086235
 21
-0.0000000369121156
 31
0.0
210
0.0
220
0.0
230
1.0
 40
0.624739254181
 41
0.0
 42
6.2831853071795862
  0
LINE
  5
16E
100
AcDbEntity
  8
0
  6
CONTINUOUS
 62
          15
100
AcDbLine
 10
123.926902770996
 20
126.136344909668
 30
0.0
 11
134.008193969727
 21
126.136344909668
 31
0.0
  0
LINE
  5
16F
100
AcDbEntity
  8
0
  6
CONTINUOUS
 62
          15
100
AcDbLine
 10
99.354881286621
 20
154.40071105957
 30
0.0
 11
94.60799407959
 21
144.352386474609
 31
0.0
  0
LINE
  5
170
100
AcDbEntity
  8
0
  6
CONTINUOUS
 62
          15
100
AcDbLine
 10
63.541007995605
 20
107.241470336914
 30
0.0
 11
63.541007995605
 21
118.904830932617
 31
0.0
  0
LINE
  5
171
100
AcDbEntity
  8
0
  6
CONTINUOUS
 62
          15
100
AcDbLine
 10
63.541007995605
 20
82.599655151367
 30
0.0
 11
63.541007995605
 21
107.241470336914
 31
0.0
  0
LINE
  5
172
100
AcDbEntity
  8
0
  6
CONTINUOUS
 62
          15
100
AcDbLine
 10
60.24991607666
 20
107.241470336914
 30
0.0
 11
60.24991607666
 21
118.904830932617
 31
0.0
  0
LINE
  5
173
100
AcDbEntity
  8
0
  6
CONTINUOUS
 62
          15
100
AcDbLine
 10
60.24991607666
 20
80.787322998047
 30
0.0
 11
60.24991607666
 21
107.241470336914
 31
0.0
  0
LINE
  5
174
100
AcDbEntity
  8
0
  6
CONTINUOUS
 62
          15
100
AcDbLine
 10
53.072971343994
 20
107.241470336914
 30
0.0
 11
53.072971343994
 21
118.904830932617
 31
0.0
  0
LINE
  5
175
100
AcDbEntity
  8
0
  6
CONTINUOUS
 62
          15
100
AcDbLine
 10
53.072971343994
 20
78.787322998047
 30
0.0
 11
53.072971343994
 21
107.241470336914
 31
0.0
  0
LINE
  5
176
100
AcDbEntity
  8
0
  6
CONTINUOUS
 62
          15
100
AcDbLine
 10
49.623275756836
 20
107.241470336914
 30
0.0
 11
49.623275756836
 21
118.904830932617
 31
0.0
  0
LINE
  5
177
100
AcDbEntity
  8
0
  6
CONTINUOUS
 62
          15
100
AcDbLine
 10
49.623275756836
 20
76.787322998047
 30
0.0
 11
49.623275756836
 21
107.241470336914
 31
0.0
  0
LINE
  5
178
100
AcDbEntity
  8
0
  6
CONTINUOUS
 62
          15
100
AcDbLine
 10
43.172721862793
 20
109.087982177734
 30
0.0
 11
43.172721862793
 21
118.904830932617
 31
0.0
  0
LINE
  5
179
100
AcDbEntity
  8
0
  6
CONTINUOUS
 62
          15
100
AcDbLine
 10
43.172721862793
 20
107.241470336914
 30
0.0
 11
43.172721862793
 21
109.087982177734
 31
0.0
  0
LINE
  5
17A
100
AcDbEntity
  8
0
  6
CONTINUOUS
 62
          15
100
AcDbLine
 10
43.172721862793
 20
74.787322998047
 30
0.0
 11
43.172721862793
 21
107.241470336914
 31
0.0
  0
LINE
  5
17B
100
AcDbEntity
  8
0
  6
CONTINUOUS
 62
          15
100
AcDbLine
 10
39.881629943848
 20
109.087982177734
 30
0.0
 11
39.881629943848
 21
118.904830932617
 31
0.0
  0
LINE
  5
17C
100
AcDbEntity
  8
0
  6
CONTINUOUS
 62
          15
100
AcDbLine
 10
39.881629943848
 20
107.241470336914
 30
0.0
 11
39.881629943848
 21
109.087982177734
 31
0.0
  0
LINE
  5
17D
100
AcDbEntity
  8
0
  6
CONTINUOUS
 62
          15
100
AcDbLine
 10
39.881629943848
 20
72.787322998047
 30
0.0
 11
39.881629943848
 21
107.241470336914
 31
0.0
  0
LINE
  5
17E
100
AcDbEntity
  8
0
  6
CONTINUOUS
 62
          15
100
AcDbLine
 10
80.206024169922
 20
113.526596069336
 30
0.0
 11
80.206024169922
 21
118.921844482422
 31
0.0
  0
LINE
  5
17F
100
AcDbEntity
  8
0
  6
CONTINUOUS
 62
          15
100
AcDbLine
 10
80.206024169922
 20
89.773094177246
 30
0.0
 11
80.206024169922
 21
107.241470336914
 31
0.0
  0
LINE
  5
180
100
AcDbEntity
  8
0
  6
CONTINUOUS
 62
          15
100
AcDbLine
 10
76.954605102539
 20
107.241470336914
 30
0.0
 11
76.954605102539
 21
118.921844482422
 31
0.0
  0
LINE
  5
181
100
AcDbEntity
  8
0
  6
CONTINUOUS
 62
          15
100
AcDbLine
 10
76.954605102539
 20
96.303810119629
 30
0.0
 11
76.954605102539
 21
107.241470336914
 31
0.0
  0
TEXT
  5
182
100
AcDbEntity
  8
0
  6
CONTINUOUS
 62
          15
100
AcDbText
 10
85.967460632324
 20
102.865191668272
 30
0.0
 40
1.5
  1
56k RESISTORS
 41
1.133333325386
  7
TXT
100
AcDbText
  0
TEXT
  5
183
100
AcDbEntity
  8
0
  6
CONTINUOUS
 62
          15
100
AcDbText
 10
85.967460632324
 20
100.465191572905
 30
0.0
 40
1.5
  1
MUST BE FITTED
 41
1.133333325386
  7
TXT
100
AcDbText
  0
TEXT
  5
184
100
AcDbEntity
  8
0
  6
CONTINUOUS
 62
          15
100
AcDbText
 10
85.967460632324
 20
98.065191477537
 30
0.0
 40
1.5
  1
TO ANY UNUSED
 41
1.133333325386
  7
TXT
100
AcDbText
  0
TEXT
  5
185
100
AcDbEntity
  8
0
  6
CONTINUOUS
 62
          15
100
AcDbText
 10
85.967460632324
 20
95.66519138217
 30
0.0
 40
1.5
  1
INPUTS
 41
1.133333325386
  7
TXT
100
AcDbText
  0
LINE
  5
186
100
AcDbEntity
  8
0
  6
CONTINUOUS
 62
          15
100
AcDbLine
 10
69.75146484375
 20
107.241470336914
 30
0.0
 11
69.75146484375
 21
118.904830932617
 31
0.0
  0
LINE
  5
187
100
AcDbEntity
  8
0
  6
CONTINUOUS
 62
          15
100
AcDbLine
 10
69.75146484375
 20
84.97632598877
 30
0.0
 11
69.75146484375
 21
107.241470336914
 31
0.0
  0
TEXT
  5
188
100
AcDbEntity
  8
0
  6
CONTINUOUS
 62
          15
100
AcDbText
 10
164.312042236328
 20
98.802844256163
 30
0.0
 40
1.5
  1
FUSED AT 3 AMPS
 41
1.000000039736
  7
GOTHICG
100
AcDbText
  0
TEXT
  5
189
100
AcDbEntity
  8
0
  6
CONTINUOUS
 62
          15
100
AcDbText
 10
164.851669311523
 20
102.041949480772
 30
0.0
 40
1.5
  1
240 Vac SUPPLY
 41
1.000000039736
  7
GOTHICG
100
AcDbText
  0
LINE
  5
18A
100
AcDbEntity
  8
0
  6
CONTINUOUS
 62
          15
100
AcDbLine
 10
25.895885467529
 20
107.241470336914
 30
0.0
 11
25.895885467529
 21
118.890815734863
 31
0.0
  0
LINE
  5
18B
100
AcDbEntity
  8
0
  6
CONTINUOUS
 62
          15
100
AcDbLine
 10
25.895885467529
 20
66.787322998047
 30
0.0
 11
25.895885467529
 21
107.241470336914
 31
0.0
  0
LINE
  5
18C
100
AcDbEntity
  8
0
  6
CONTINUOUS
 62
          15
100
AcDbLine
 10
29.464530944824
 20
107.241470336914
 30
0.0
 11
29.464530944824
 21
118.890815734863
 31
0.0
  0
LINE
  5
18D
100
AcDbEntity
  8
0
  6
CONTINUOUS
 62
          15
100
AcDbLine
 10
29.464530944824
 20
68.787322998047
 30
0.0
 11
29.464530944824
 21
107.241470336914
 31
0.0
  0
LINE
  5
18E
100
AcDbEntity
  8
0
  6
CONTINUOUS
 62
          15
100
AcDbLine
 10
32.75562286377
 20
107.241470336914
 30
0.0
 11
32.75562286377
 21
118.890815734863
 31
0.0
  0
LINE
  5
18F
100
AcDbEntity
  8
0
  6
CONTINUOUS
 62
          15
100
AcDbLine
 10
32.75562286377
 20
70.787322998047
 30
0.0
 11
32.75562286377
 21
107.241470336914
 31
0.0
  0
LINE
  5
190
100
AcDbEntity
  8
0
  6
CONTINUOUS
 62
          15
100
AcDbLine
 10
60.24991607666
 20
80.787322998047
 30
0.0
 11
134.701568603516
 21
80.787322998047
 31
0.0
  0
LINE
  5
191
100
AcDbEntity
  8
0
  6
CONTINUOUS
 62
          15
100
AcDbLine
 10
53.072971343994
 20
78.787322998047
 30
0.0
 11
132.451568603516
 21
78.787322998047
 31
0.0
  0
LINE
  5
192
100
AcDbEntity
  8
0
  6
CONTINUOUS
 62
          15
100
AcDbLine
 10
49.623275756836
 20
76.787322998047
 30
0.0
 11
130.201568603516
 21
76.787322998047
 31
0.0
  0
LINE
  5
193
100
AcDbEntity
  8
0
  6
CONTINUOUS
 62
          15
100
AcDbLine
 10
43.172721862793
 20
74.787322998047
 30
0.0
 11
81.814956665039
 21
74.787322998047
 31
0.0
  0
LINE
  5
194
100
AcDbEntity
  8
0
  6
CONTINUOUS
 62
          15
100
AcDbLine
 10
39.881629943848
 20
72.787322998047
 30
0.0
 11
79.564956665039
 21
72.787322998047
 31
0.0
  0
LINE
  5
195
100
AcDbEntity
  8
0
  6
CONTINUOUS
 62
          15
100
AcDbLine
 10
32.75562286377
 20
70.787322998047
 30
0.0
 11
77.314956665039
 21
70.787322998047
 31
0.0
  0
LINE
  5
196
100
AcDbEntity
  8
0
  6
CONTINUOUS
 62
          15
100
AcDbLine
 10
29.464530944824
 20
68.787322998047
 30
0.0
 11
75.064956665039
 21
68.787322998047
 31
0.0
  0
LINE
  5
197
100
AcDbEntity
  8
0
  6
CONTINUOUS
 62
          15
100
AcDbLine
 10
25.895885467529
 20
66.787322998047
 30
0.0
 11
70.564956665039
 21
66.787322998047
 31
0.0
  0
LINE
  5
198
100
AcDbEntity
  8
0
  6
CONTINUOUS
 62
          15
100
AcDbLine
 10
63.541007995605
 20
82.599655151367
 30
0.0
 11
137.059860229492
 21
82.599655151367
 31
0.0
  0
LINE
  5
199
100
AcDbEntity
  8
0
  6
CONTINUOUS
 62
          15
100
AcDbLine
 10
69.75146484375
 20
84.97632598877
 30
0.0
 11
188.448745727539
 21
84.97632598877
 31
0.0
  0
LINE
  5
19A
100
AcDbEntity
  8
0
  6
CONTINUOUS
 62
          15
100
AcDbLine
 10
80.206024169922
 20
89.773094177246
 30
0.0
 11
192.948745727539
 21
89.773094177246
 31
0.0
  0
LINE
  5
19B
100
AcDbEntity
  8
0
  6
CONTINUOUS
 62
          15
100
AcDbLine
 10
73.201156616211
 20
87.432929992676
 30
0.0
 11
190.74479675293
 21
87.432929992676
 31
0.0
  0
LINE
  5
19C
100
AcDbEntity
  8
0
  6
CONTINUOUS
 62
          15
100
AcDbLine
 10
73.201156616211
 20
107.241470336914
 30
0.0
 11
73.201156616211
 21
118.904830932617
 31
0.0
  0
LINE
  5
19D
100
AcDbEntity
  8
0
  6
CONTINUOUS
 62
          15
100
AcDbLine
 10
73.201156616211
 20
87.432929992676
 30
0.0
 11
73.201156616211
 21
107.241470336914
 31
0.0
  0
LINE
  5
19E
100
AcDbEntity
  8
0
  6
CONTINUOUS
 62
          15
100
AcDbLine
 10
39.082210540771
 20
156.632751464844
 30
0.0
 11
39.082210540771
 21
164.865798950195
 31
0.0
  0
LINE
  5
19F
100
AcDbEntity
  8
0
  6
CONTINUOUS
 62
          15
100
AcDbLine
 10
35.38650894165
 20
165.384368896484
 30
0.0
 11
23.568195343018
 21
170.187561035156
 31
0.0
  0
ARC
  5
1A0
100
AcDbEntity
  8
0
  6
CONTINUOUS
 62
          15
100
AcDbCircle
 10
37.652210235596
 20
164.865798950195
 30
0.0
 40
1.429999947548
100
AcDbArc
 50
0.0
 51
180.000008651422
  0
LINE
  5
1A1
100
AcDbEntity
  8
0
  6
CONTINUOUS
 62
          15
100
AcDbLine
 10
36.22220993042
 20
156.632751464844
 30
0.0
 11
36.22220993042
 21
164.865798950195
 31
0.0
  0
LINE
  5
1A2
100
AcDbEntity
  8
0
  6
CONTINUOUS
 62
          15
100
AcDbLine
 10
36.22220993042
 20
147.987731933594
 30
0.0
 11
36.22220993042
 21
156.632751464844
 31
0.0
  0
LINE
  5
1A3
100
AcDbEntity
  8
0
  6
CONTINUOUS
 62
          15
100
AcDbLine
 10
46.386539459229
 20
149.278823852539
 30
0.0
 11
37.471134185791
 21
149.278823852539
 31
0.0
  0
LINE
  5
1A4
100
AcDbEntity
  8
0
  6
CONTINUOUS
 62
          15
100
AcDbLine
 10
46.386539459229
 20
149.278823852539
 30
0.0
 11
46.386539459229
 21
142.146499633789
 31
0.0
  0
LINE
  5
1A5
100
AcDbEntity
  8
0
  6
CONTINUOUS
 62
          15
100
AcDbLine
 10
37.471134185791
 20
142.146499633789
 30
0.0
 11
46.386539459229
 21
142.146499633789
 31
0.0
  0
LINE
  5
1A6
100
AcDbEntity
  8
0
  6
CONTINUOUS
 62
          15
100
AcDbLine
 10
31.527547836304
 20
142.146499633789
 30
0.0
 11
37.619709014893
 21
142.146499633789
 31
0.0
  0
LINE
  5
1A7
100
AcDbEntity
  8
0
  6
CONTINUOUS
 62
          15
100
AcDbLine
 10
31.527547836304
 20
142.146499633789
 30
0.0
 11
31.527547836304
 21
149.278823852539
 31
0.0
  0
LINE
  5
1A8
100
AcDbEntity
  8
0
  6
CONTINUOUS
 62
          15
100
AcDbLine
 10
37.619709014893
 20
149.278823852539
 30
0.0
 11
31.527547836304
 21
149.278823852539
 31
0.0
  0
LINE
  5
1A9
100
AcDbEntity
  8
0
  6
CONTINUOUS
 62
          15
100
AcDbLine
 10
43.786220550537
 20
153.06787109375
 30
0.0
 11
43.786220550537
 21
149.870330810547
 31
0.0
  0
LINE
  5
1AA
100
AcDbEntity
  8
0
  6
CONTINUOUS
 62
          15
100
AcDbLine
 10
37.664302825928
 20
153.06787109375
 30
0.0
 11
37.664302825928
 21
149.870330810547
 31
0.0
  0
LINE
  5
1AB
100
AcDbEntity
  8
0
  6
CONTINUOUS
 62
          15
100
AcDbLine
 10
31.572103500366
 20
149.870330810547
 30
0.0
 11
31.572103500366
 21
153.06787109375
 31
0.0
  0
LINE
  5
1AC
100
AcDbEntity
  8
0
  6
CONTINUOUS
 62
          15
100
AcDbLine
 10
34.543914794922
 20
153.06787109375
 30
0.0
 11
34.543914794922
 21
149.870330810547
 31
0.0
  0
LINE
  5
1AD
100
AcDbEntity
  8
0
  6
CONTINUOUS
 62
          15
100
AcDbLine
 10
37.664302825928
 20
153.06787109375
 30
0.0
 11
37.664302825928
 21
149.650299072266
 31
0.0
  0
LINE
  5
1AE
100
AcDbEntity
  8
0
  6
CONTINUOUS
 62
          15
100
AcDbLine
 10
40.636116027832
 20
153.06787109375
 30
0.0
 11
40.636116027832
 21
149.870330810547
 31
0.0
  0
LINE
  5
1AF
100
AcDbEntity
  8
0
  6
CONTINUOUS
 62
          15
100
AcDbLine
 10
46.37255859375
 20
153.06787109375
 30
0.0
 11
31.572103500366
 21
153.06787109375
 31
0.0
  0
LINE
  5
1B0
100
AcDbEntity
  8
0
  6
CONTINUOUS
 62
          15
100
AcDbLine
 10
33.57559967041
 20
145.881759643555
 30
0.0
 11
32.413051605225
 21
145.881759643555
 31
0.0
  0
LINE
  5
1B1
100
AcDbEntity
  8
0
  6
CONTINUOUS
 62
          15
100
AcDbLine
 10
32.413051605225
 20
145.881759643555
 30
0.0
 11
32.413051605225
 21
147.943496704102
 31
0.0
  0
LINE
  5
1B2
100
AcDbEntity
  8
0
  6
CONTINUOUS
 62
          15
100
AcDbLine
 10
32.413051605225
 20
147.943496704102
 30
0.0
 11
33.57559967041
 21
147.943496704102
 31
0.0
  0
LINE
  5
1B3
100
AcDbEntity
  8
0
  6
CONTINUOUS
 62
          15
100
AcDbLine
 10
33.57559967041
 20
147.943496704102
 30
0.0
 11
33.57559967041
 21
145.881759643555
 31
0.0
  0
LINE
  5
1B4
100
AcDbEntity
  8
0
  6
CONTINUOUS
 62
          15
100
AcDbLine
 10
33.57559967041
 20
147.251556396484
 30
0.0
 11
32.413051605225
 21
147.251556396484
 31
0.0
  0
LINE
  5
1B5
100
AcDbEntity
  8
0
  6
CONTINUOUS
 62
          15
100
AcDbLine
 10
33.416633605957
 20
143.641128540039
 30
0.0
 11
32.572017669678
 21
144.485748291016
 31
0.0
  0
ELLIPSE
  5
1B6
100
AcDbEntity
  8
0
  6
CONTINUOUS
 62
          15
100
AcDbEllipse
 10
32.994323730469
 20
144.063430786133
 30
0.0
 11
0.845844089984893
 21
-0.0000000369730194
 31
0.0
210
0.0
220
0.0
230
1.0
 40
0.624739260889
 41
0.0
 42
6.2831853071795862
  0
LINE
  5
1B7
100
AcDbEntity
  8
0
  6
CONTINUOUS
 62
          15
100
AcDbLine
 10
36.56872177124
 20
145.881759643555
 30
0.0
 11
35.406169891357
 21
145.881759643555
 31
0.0
  0
LINE
  5
1B8
100
AcDbEntity
  8
0
  6
CONTINUOUS
 62
          15
100
AcDbLine
 10
35.406169891357
 20
145.881759643555
 30
0.0
 11
35.406169891357
 21
147.943496704102
 31
0.0
  0
LINE
  5
1B9
100
AcDbEntity
  8
0
  6
CONTINUOUS
 62
          15
100
AcDbLine
 10
35.406169891357
 20
147.943496704102
 30
0.0
 11
36.56872177124
 21
147.943496704102
 31
0.0
  0
LINE
  5
1BA
100
AcDbEntity
  8
0
  6
CONTINUOUS
 62
          15
100
AcDbLine
 10
36.56872177124
 20
147.943496704102
 30
0.0
 11
36.56872177124
 21
145.881759643555
 31
0.0
  0
LINE
  5
1BB
100
AcDbEntity
  8
0
  6
CONTINUOUS
 62
          15
100
AcDbLine
 10
36.56872177124
 20
147.251556396484
 30
0.0
 11
35.406169891357
 21
147.251556396484
 31
0.0
  0
LINE
  5
1BC
100
AcDbEntity
  8
0
  6
CONTINUOUS
 62
          15
100
AcDbLine
 10
36.409755706787
 20
143.641128540039
 30
0.0
 11
35.565139770508
 21
144.485748291016
 31
0.0
  0
ELLIPSE
  5
1BD
100
AcDbEntity
  8
0
  6
CONTINUOUS
 62
          15
100
AcDbEllipse
 10
35.987445831299
 20
144.063430786133
 30
0.0
 11
0.845844089984893
 21
-0.0000000369730194
 31
0.0
210
0.0
220
0.0
230
1.0
 40
0.624739260889
 41
0.0
 42
6.2831853071795862
  0
LINE
  5
1BE
100
AcDbEntity
  8
0
  6
CONTINUOUS
 62
          15
100
AcDbLine
 10
39.668743133545
 20
145.881759643555
 30
0.0
 11
38.506191253662
 21
145.881759643555
 31
0.0
  0
LINE
  5
1BF
100
AcDbEntity
  8
0
  6
CONTINUOUS
 62
          15
100
AcDbLine
 10
38.506191253662
 20
145.881759643555
 30
0.0
 11
38.506191253662
 21
147.943496704102
 31
0.0
  0
LINE
  5
1C0
100
AcDbEntity
  8
0
  6
CONTINUOUS
 62
          15
100
AcDbLine
 10
38.506191253662
 20
147.943496704102
 30
0.0
 11
39.668743133545
 21
147.943496704102
 31
0.0
  0
LINE
  5
1C1
100
AcDbEntity
  8
0
  6
CONTINUOUS
 62
          15
100
AcDbLine
 10
39.668743133545
 20
147.943496704102
 30
0.0
 11
39.668743133545
 21
145.881759643555
 31
0.0
  0
LINE
  5
1C2
100
AcDbEntity
  8
0
  6
CONTINUOUS
 62
          15
100
AcDbLine
 10
39.668743133545
 20
147.251556396484
 30
0.0
 11
38.506191253662
 21
147.251556396484
 31
0.0
  0
LINE
  5
1C3
100
AcDbEntity
  8
0
  6
CONTINUOUS
 62
          15
100
AcDbLine
 10
39.509773254395
 20
143.641128540039
 30
0.0
 11
38.665157318115
 21
144.485748291016
 31
0.0
  0
ELLIPSE
  5
1C4
100
AcDbEntity
  8
0
  6
CONTINUOUS
 62
          15
100
AcDbEllipse
 10
39.087463378906
 20
144.063430786133
 30
0.0
 11
0.845844089984893
 21
-0.0000000369730194
 31
0.0
210
0.0
220
0.0
230
1.0
 40
0.624739260889
 41
0.0
 42
6.2831853071795862
  0
LINE
  5
1C5
100
AcDbEntity
  8
0
  6
CONTINUOUS
 62
          15
100
AcDbLine
 10
42.5549659729
 20
145.881759643555
 30
0.0
 11
41.392417907715
 21
145.881759643555
 31
0.0
  0
LINE
  5
1C6
100
AcDbEntity
  8
0
  6
CONTINUOUS
 62
          15
100
AcDbLine
 10
41.392417907715
 20
145.881759643555
 30
0.0
 11
41.392417907715
 21
147.943496704102
 31
0.0
  0
LINE
  5
1C7
100
AcDbEntity
  8
0
  6
CONTINUOUS
 62
          15
100
AcDbLine
 10
41.392417907715
 20
147.943496704102
 30
0.0
 11
42.5549659729
 21
147.943496704102
 31
0.0
  0
LINE
  5
1C8
100
AcDbEntity
  8
0
  6
CONTINUOUS
 62
          15
100
AcDbLine
 10
42.5549659729
 20
147.943496704102
 30
0.0
 11
42.5549659729
 21
145.881759643555
 31
0.0
  0
LINE
  5
1C9
100
AcDbEntity
  8
0
  6
CONTINUOUS
 62
          15
100
AcDbLine
 10
42.5549659729
 20
147.251556396484
 30
0.0
 11
41.392417907715
 21
147.251556396484
 31
0.0
  0
LINE
  5
1CA
100
AcDbEntity
  8
0
  6
CONTINUOUS
 62
          15
100
AcDbLine
 10
42.395999908447
 20
143.641128540039
 30
0.0
 11
41.551383972168
 21
144.485748291016
 31
0.0
  0
ELLIPSE
  5
1CB
100
AcDbEntity
  8
0
  6
CONTINUOUS
 62
          15
100
AcDbEllipse
 10
41.973686218262
 20
144.063430786133
 30
0.0
 11
0.845844089984893
 21
-0.0000000369730194
 31
0.0
210
0.0
220
0.0
230
1.0
 40
0.624739260889
 41
0.0
 42
6.2831853071795862
  0
LINE
  5
1CC
100
AcDbEntity
  8
0
  6
CONTINUOUS
 62
          15
100
AcDbLine
 10
45.76188659668
 20
145.881759643555
 30
0.0
 11
44.5993309021
 21
145.881759643555
 31
0.0
  0
LINE
  5
1CD
100
AcDbEntity
  8
0
  6
CONTINUOUS
 62
          15
100
AcDbLine
 10
44.5993309021
 20
145.881759643555
 30
0.0
 11
44.5993309021
 21
147.943496704102
 31
0.0
  0
LINE
  5
1CE
100
AcDbEntity
  8
0
  6
CONTINUOUS
 62
          15
100
AcDbLine
 10
44.5993309021
 20
147.943496704102
 30
0.0
 11
45.76188659668
 21
147.943496704102
 31
0.0
  0
LINE
  5
1CF
100
AcDbEntity
  8
0
  6
CONTINUOUS
 62
          15
100
AcDbLine
 10
45.76188659668
 20
147.943496704102
 30
0.0
 11
45.76188659668
 21
145.881759643555
 31
0.0
  0
LINE
  5
1D0
100
AcDbEntity
  8
0
  6
CONTINUOUS
 62
          15
100
AcDbLine
 10
45.76188659668
 20
147.251556396484
 30
0.0
 11
44.5993309021
 21
147.251556396484
 31
0.0
  0
LINE
  5
1D1
100
AcDbEntity
  8
0
  6
CONTINUOUS
 62
          15
100
AcDbLine
 10
45.602916717529
 20
143.641128540039
 30
0.0
 11
44.75830078125
 21
144.485748291016
 31
0.0
  0
ELLIPSE
  5
1D2
100
AcDbEntity
  8
0
  6
CONTINUOUS
 62
          15
100
AcDbEllipse
 10
45.180606842041
 20
144.063430786133
 30
0.0
 11
0.845844089984893
 21
-0.0000000369730194
 31
0.0
210
0.0
220
0.0
230
1.0
 40
0.624739260889
 41
0.0
 42
6.2831853071795862
  0
LINE
  5
1D3
100
AcDbEntity
  8
0
  6
CONTINUOUS
 62
          15
100
AcDbLine
 10
31.527547836304
 20
145.140869140625
 30
0.0
 11
46.386539459229
 21
145.140869140625
 31
0.0
  0
LINE
  5
1D4
100
AcDbEntity
  8
0
  6
CONTINUOUS
 62
          15
100
AcDbLine
 10
46.37255859375
 20
153.06787109375
 30
0.0
 11
46.37255859375
 21
149.888687133789
 31
0.0
  0
LINE
  5
1D5
100
AcDbEntity
  8
0
  6
CONTINUOUS
 62
          15
100
AcDbLine
 10
34.543914794922
 20
149.278823852539
 30
0.0
 11
34.543914794922
 21
142.146499633789
 31
0.0
  0
LINE
  5
1D6
100
AcDbEntity
  8
0
  6
CONTINUOUS
 62
          15
100
AcDbLine
 10
37.682418823242
 20
149.278823852539
 30
0.0
 11
37.682418823242
 21
142.146499633789
 31
0.0
  0
LINE
  5
1D7
100
AcDbEntity
  8
0
  6
CONTINUOUS
 62
          15
100
AcDbLine
 10
40.638984680176
 20
149.278823852539
 30
0.0
 11
40.638984680176
 21
142.146499633789
 31
0.0
  0
LINE
  5
1D8
100
AcDbEntity
  8
0
  6
CONTINUOUS
 62
          15
100
AcDbLine
 10
43.777488708496
 20
149.278823852539
 30
0.0
 11
43.777488708496
 21
142.146499633789
 31
0.0
  0
TEXT
  5
1D9
100
AcDbEntity
  8
0
  6
CONTINUOUS
 62
          15
100
AcDbText
 10
42.49347884953
 20
150.141586285352
 30
0.0
 40
1.399999976158
  1
DO
 50
90.000002504478
 41
1.071428589675
  7
GOTHICI
100
AcDbText
  0
TEXT
  5
1DA
100
AcDbEntity
  8
0
  6
CONTINUOUS
 62
          15
100
AcDbText
 10
39.521703794599
 20
150.141586285352
 30
0.0
 40
1.399999976158
  1
SM
 50
90.000002504478
 41
1.071428589675
  7
GOTHICI
100
AcDbText
  0
TEXT
  5
1DB
100
AcDbEntity
  8
0
  6
CONTINUOUS
 62
          15
100
AcDbText
 10
33.57807739079
 20
150.334747296094
 30
0.0
 40
1.399999976158
  1
SI
 50
90.000002504478
 41
1.071428589675
  7
GOTHICI
100
AcDbText
  0
TEXT
  5
1DC
100
AcDbEntity
  8
0
  6
CONTINUOUS
 62
          15
100
AcDbText
 10
36.549890592694
 20
150.141586285352
 30
0.0
 40
1.399999976158
  1
SO
 50
90.000002504478
 41
1.071428589675
  7
GOTHICI
100
AcDbText
  0
TEXT
  5
1DD
100
AcDbEntity
  8
0
  6
CONTINUOUS
 62
          15
100
AcDbText
 10
45.688135221601
 20
150.037567120313
 30
0.0
 40
1.399999976158
  1
CM
 50
90.000002504478
 41
1.071428589675
  7
GOTHICI
100
AcDbText
  0
TEXT
  5
1DE
100
AcDbEntity
  8
0
  6
CONTINUOUS
 62
          15
100
AcDbText
 10
26.340354919434
 20
153.992308974266
 30
0.0
 40
1.200000047684
  1
INTER-PANEL CONNECTIONS
 41
1.08333330022
  7
GOTHICI
100
AcDbText
  0
TEXT
  5
1DF
100
AcDbEntity
  8
0
  6
CONTINUOUS
 62
          15
100
AcDbText
 10
11.067749023438
 20
171.920192748308
 30
0.0
 40
1.689999938011
  1
"SO" to "SM"
 41
1.153846153846
  7
GOTHICI
100
AcDbText
  0
TEXT
  5
1E0
100
AcDbEntity
  8
0
  6
CONTINUOUS
 62
          15
100
AcDbText
 10
11.887197494507
 20
175.351253539324
 30
0.0
 40
1.689999938011
  1
CHECK "LINK"
 41
1.153846153846
  7
GOTHICI
100
AcDbText
  0
TEXT
  5
1E1
100
AcDbEntity
  8
0
  6
CONTINUOUS
 62
          15
100
AcDbText
 10
132.378982543945
 20
165.278540074825
 30
0.0
 40
3.0
  1
SA-6 AREA ALARM
  7
ROMAND
100
AcDbText
  0
LINE
  5
1E2
100
AcDbEntity
  8
0
  6
CONTINUOUS
 62
          15
100
AcDbLine
 10
65.223823547363
 20
60.782356262207
 30
0.0
 11
224.580535888672
 21
60.782356262207
 31
0.0
  0
LINE
  5
1E3
100
AcDbEntity
  8
0
  6
CONTINUOUS
 62
          15
100
AcDbLine
 10
224.580535888672
 20
60.782356262207
 30
0.0
 11
224.580535888672
 21
31.149843215942
 31
0.0
  0
LINE
  5
1E4
100
AcDbEntity
  8
0
  6
CONTINUOUS
 62
          15
100
AcDbLine
 10
224.580535888672
 20
31.149843215942
 30
0.0
 11
65.223823547363
 21
31.149843215942
 31
0.0
  0
LINE
  5
1E5
100
AcDbEntity
  8
0
  6
CONTINUOUS
 62
          15
100
AcDbLine
 10
65.223823547363
 20
31.149843215942
 30
0.0
 11
65.223823547363
 21
60.782356262207
 31
0.0
  0
TEXT
  5
1E6
100
AcDbEntity
  8
0
  6
CONTINUOUS
 62
          15
100
AcDbText
 10
23.203813552856
 20
48.313342303038
 30
0.0
 40
1.5
  1
NOTE
 41
1.133333325386
  7
TXT
100
AcDbText
  0
TEXT
  5
1E7
100
AcDbEntity
  8
0
  6
CONTINUOUS
 62
          15
100
AcDbText
 10
23.203813552856
 20
45.91334220767
 30
0.0
 40
1.5
  1
TERMINATION BOARDS OR
 41
1.133333325386
  7
TXT
100
AcDbText
  0
TEXT
  5
1E8
100
AcDbEntity
  8
0
  6
CONTINUOUS
 62
          15
100
AcDbText
 10
23.203813552856
 20
43.513342112303
 30
0.0
 40
1.5
  1
BOXES MUST BE MOUNTED
 41
1.133333325386
  7
TXT
100
AcDbText
  0
TEXT
  5
1E9
100
AcDbEntity
  8
0
  6
CONTINUOUS
 62
          15
100
AcDbText
 10
23.203813552856
 20
41.113342016935
 30
0.0
 40
1.5
  1
AS CLOSE AS POSSIBLE
 41
1.133333325386
  7
TXT
100
AcDbText
  0
TEXT
  5
1EA
100
AcDbEntity
  8
0
  6
CONTINUOUS
 62
          15
100
AcDbText
 10
23.203813552856
 20
38.713341921568
 30
0.0
 40
1.5
  1
TO THE PRESSURE SWITCHES
 41
1.133333325386
  7
TXT
100
AcDbText
  0
TEXT
  5
1EB
100
AcDbEntity
  8
0
  6
CONTINUOUS
 62
          15
100
AcDbText
 10
201.381912231445
 20
55.770940408111
 30
0.0
 40
2.0
  1
TERMINATION
  7
GOTHICI
100
AcDbText
  0
TEXT
  5
1EC
100
AcDbEntity
  8
0
  6
CONTINUOUS
 62
          15
100
AcDbText
 10
201.381912231445
 20
52.570940360427
 30
0.0
 40
2.0
  1
    BOX
  7
GOTHICI
100
AcDbText
  0
LINE
  5
1ED
100
AcDbEntity
  8
0
  6
CONTINUOUS
 62
          15
100
AcDbLine
 10
24.48588180542
 20
125.097526550293
 30
0.0
 11
24.48588180542
 21
113.526596069336
 31
0.0
  0
LINE
  5
1EE
100
AcDbEntity
  8
0
  6
CONTINUOUS
 62
          15
100
AcDbLine
 10
115.697227478027
 20
116.867919921875
 30
0.0
 11
115.800224304199
 21
116.867919921875
 31
0.0
  0
LINE
  5
1EF
100
AcDbEntity
  8
0
  6
CONTINUOUS
 62
          15
100
AcDbLine
 10
95.431838989258
 20
116.867919921875
 30
0.0
 11
95.431838989258
 21
113.526596069336
 31
0.0
  0
LINE
  5
1F0
100
AcDbEntity
  8
0
  6
CONTINUOUS
 62
          15
100
AcDbLine
 10
27.691967010498
 20
125.097526550293
 30
0.0
 11
27.691967010498
 21
113.526596069336
 31
0.0
  0
LINE
  5
1F1
100
AcDbEntity
  8
0
  6
CONTINUOUS
 62
          15
100
AcDbLine
 10
31.120983123779
 20
116.867919921875
 30
0.0
 11
31.120983123779
 21
113.526596069336
 31
0.0
  0
LINE
  5
1F2
100
AcDbEntity
  8
0
  6
CONTINUOUS
 62
          15
100
AcDbLine
 10
34.549999237061
 20
116.867919921875
 30
0.0
 11
34.549999237061
 21
113.526596069336
 31
0.0
  0
LINE
  5
1F3
100
AcDbEntity
  8
0
  6
CONTINUOUS
 62
          15
100
AcDbLine
 10
41.407939910889
 20
116.867919921875
 30
0.0
 11
41.407939910889
 21
113.526596069336
 31
0.0
  0
LINE
  5
1F4
100
AcDbEntity
  8
0
  6
CONTINUOUS
 62
          15
100
AcDbLine
 10
61.776226043701
 20
116.867919921875
 30
0.0
 11
61.776226043701
 21
114.330467224121
 31
0.0
  0
LINE
  5
1F5
100
AcDbEntity
  8
0
  6
CONTINUOUS
 62
          15
100
AcDbLine
 10
24.48588180542
 20
116.867919921875
 30
0.0
 11
24.48588180542
 21
114.330467224121
 31
0.0
  0
LINE
  5
1F6
100
AcDbEntity
  8
0
  6
CONTINUOUS
 62
          15
100
AcDbLine
 10
44.854167938232
 20
116.867919921875
 30
0.0
 11
34.567165374756
 21
116.867919921875
 31
0.0
  0
LINE
  5
1F7
100
AcDbEntity
  8
0
  6
CONTINUOUS
 62
          15
100
AcDbLine
 10
34.567165374756
 20
125.097526550293
 30
0.0
 11
38.081920623779
 21
125.097526550293
 31
0.0
  0
LINE
  5
1F8
100
AcDbEntity
  8
0
  6
CONTINUOUS
 62
          15
100
AcDbLine
 10
38.081920623779
 20
125.097526550293
 30
0.0
 11
44.854167938232
 21
125.097526550293
 31
0.0
  0
LINE
  5
1F9
100
AcDbEntity
  8
0
  6
CONTINUOUS
 62
          15
100
AcDbLine
 10
24.48588180542
 20
125.097526550293
 30
0.0
 11
24.48588180542
 21
114.330467224121
 31
0.0
  0
LINE
  5
1FA
100
AcDbEntity
  8
0
  6
CONTINUOUS
 62
          15
100
AcDbLine
 10
31.138149261475
 20
125.097526550293
 30
0.0
 11
31.138149261475
 21
114.330467224121
 31
0.0
  0
LINE
  5
1FB
100
AcDbEntity
  8
0
  6
CONTINUOUS
 62
          15
100
AcDbLine
 10
34.567165374756
 20
125.097526550293
 30
0.0
 11
34.567165374756
 21
114.330467224121
 31
0.0
  0
LINE
  5
1FC
100
AcDbEntity
  8
0
  6
CONTINUOUS
 62
          15
100
AcDbLine
 10
41.425151824951
 20
125.097526550293
 30
0.0
 11
41.425151824951
 21
114.330467224121
 31
0.0
  0
LINE
  5
1FD
100
AcDbEntity
  8
0
  6
CONTINUOUS
 62
          15
100
AcDbLine
 10
44.854167938232
 20
125.097526550293
 30
0.0
 11
44.854167938232
 21
113.526596069336
 31
0.0
  0
LINE
  5
1FE
100
AcDbEntity
  8
0
  6
CONTINUOUS
 62
          15
100
AcDbLine
 10
38.081920623779
 20
125.097526550293
 30
0.0
 11
38.081920623779
 21
113.526596069336
 31
0.0
  0
LINE
  5
1FF
100
AcDbEntity
  8
0
  6
CONTINUOUS
 62
          15
100
AcDbLine
 10
36.734596252441
 20
122.647994995117
 30
0.0
 11
35.891372680664
 21
123.491218566895
 31
0.0
  0
LINE
  5
200
100
AcDbEntity
  8
0
  6
CONTINUOUS
 62
          15
100
AcDbLine
 10
35.732666015625
 20
120.272361755371
 30
0.0
 11
36.89330291748
 21
120.272361755371
 31
0.0
  0
LINE
  5
201
100
AcDbEntity
  8
0
  6
CONTINUOUS
 62
          15
100
AcDbLine
 10
36.89330291748
 20
120.272361755371
 30
0.0
 11
36.89330291748
 21
118.214019775391
 31
0.0
  0
LINE
  5
202
100
AcDbEntity
  8
0
  6
CONTINUOUS
 62
          15
100
AcDbLine
 10
36.89330291748
 20
118.214019775391
 30
0.0
 11
35.732666015625
 21
118.214019775391
 31
0.0
  0
LINE
  5
203
100
AcDbEntity
  8
0
  6
CONTINUOUS
 62
          15
100
AcDbLine
 10
35.732666015625
 20
118.214019775391
 30
0.0
 11
35.732666015625
 21
120.272361755371
 31
0.0
  0
LINE
  5
204
100
AcDbEntity
  8
0
  6
CONTINUOUS
 62
          15
100
AcDbLine
 10
35.732666015625
 20
118.904830932617
 30
0.0
 11
36.89330291748
 21
118.904830932617
 31
0.0
  0
ELLIPSE
  5
205
100
AcDbEntity
  8
0
  6
CONTINUOUS
 62
          15
100
AcDbEllipse
 10
36.312984466553
 20
123.069595336914
 30
0.0
 11
0.8444507718086235
 21
-0.0000000369121156
 31
0.0
210
0.0
220
0.0
230
1.0
 40
0.624739254181
 41
0.0
 42
6.2831853071795862
  0
LINE
  5
206
100
AcDbEntity
  8
0
  6
CONTINUOUS
 62
          15
100
AcDbLine
 10
40.303241729736
 20
122.647994995117
 30
0.0
 11
39.460018157959
 21
123.491218566895
 31
0.0
  0
LINE
  5
207
100
AcDbEntity
  8
0
  6
CONTINUOUS
 62
          15
100
AcDbLine
 10
39.30131149292
 20
120.272361755371
 30
0.0
 11
40.461948394775
 21
120.272361755371
 31
0.0
  0
LINE
  5
208
100
AcDbEntity
  8
0
  6
CONTINUOUS
 62
          15
100
AcDbLine
 10
40.461948394775
 20
120.272361755371
 30
0.0
 11
40.461948394775
 21
118.214019775391
 31
0.0
  0
LINE
  5
209
100
AcDbEntity
  8
0
  6
CONTINUOUS
 62
          15
100
AcDbLine
 10
40.461948394775
 20
118.214019775391
 30
0.0
 11
39.30131149292
 21
118.214019775391
 31
0.0
  0
LINE
  5
20A
100
AcDbEntity
  8
0
  6
CONTINUOUS
 62
          15
100
AcDbLine
 10
39.30131149292
 20
118.214019775391
 30
0.0
 11
39.30131149292
 21
120.272361755371
 31
0.0
  0
LINE
  5
20B
100
AcDbEntity
  8
0
  6
CONTINUOUS
 62
          15
100
AcDbLine
 10
39.30131149292
 20
118.904830932617
 30
0.0
 11
40.461948394775
 21
118.904830932617
 31
0.0
  0
ELLIPSE
  5
20C
100
AcDbEntity
  8
0
  6
CONTINUOUS
 62
          15
100
AcDbEllipse
 10
39.881629943848
 20
123.069595336914
 30
0.0
 11
0.8444507718086235
 21
-0.0000000369121156
 31
0.0
210
0.0
220
0.0
230
1.0
 40
0.624739254181
 41
0.0
 42
6.2831853071795862
  0
LINE
  5
20D
100
AcDbEntity
  8
0
  6
CONTINUOUS
 62
          15
100
AcDbLine
 10
43.594333648682
 20
122.647994995117
 30
0.0
 11
42.751110076904
 21
123.491218566895
 31
0.0
  0
LINE
  5
20E
100
AcDbEntity
  8
0
  6
CONTINUOUS
 62
          15
100
AcDbLine
 10
42.592403411865
 20
120.272361755371
 30
0.0
 11
43.753040313721
 21
120.272361755371
 31
0.0
  0
LINE
  5
20F
100
AcDbEntity
  8
0
  6
CONTINUOUS
 62
          15
100
AcDbLine
 10
43.753040313721
 20
120.272361755371
 30
0.0
 11
43.753040313721
 21
118.214019775391
 31
0.0
  0
LINE
  5
210
100
AcDbEntity
  8
0
  6
CONTINUOUS
 62
          15
100
AcDbLine
 10
43.753040313721
 20
118.214019775391
 30
0.0
 11
42.592403411865
 21
118.214019775391
 31
0.0
  0
LINE
  5
211
100
AcDbEntity
  8
0
  6
CONTINUOUS
 62
          15
100
AcDbLine
 10
42.592403411865
 20
118.214019775391
 30
0.0
 11
42.592403411865
 21
120.272361755371
 31
0.0
  0
LINE
  5
212
100
AcDbEntity
  8
0
  6
CONTINUOUS
 62
          15
100
AcDbLine
 10
42.592403411865
 20
118.904830932617
 30
0.0
 11
43.753040313721
 21
118.904830932617
 31
0.0
  0
ELLIPSE
  5
213
100
AcDbEntity
  8
0
  6
CONTINUOUS
 62
          15
100
AcDbEllipse
 10
43.172710418701
 20
123.069595336914
 30
0.0
 11
0.8444507718086235
 21
-0.0000000369121156
 31
0.0
210
0.0
220
0.0
230
1.0
 40
0.624739254181
 41
0.0
 42
6.2831853071795862
  0
LINE
  5
214
100
AcDbEntity
  8
0
  6
CONTINUOUS
 62
          15
100
AcDbLine
 10
34.567165374756
 20
116.867919921875
 30
0.0
 11
24.48588180542
 21
116.867919921875
 31
0.0
  0
LINE
  5
215
100
AcDbEntity
  8
0
  6
CONTINUOUS
 62
          15
100
AcDbLine
 10
75.06364440918
 20
116.867919921875
 30
0.0
 11
34.567165374756
 21
116.867919921875
 31
0.0
  0
LINE
  5
216
100
AcDbEntity
  8
0
  6
CONTINUOUS
 62
          15
100
AcDbLine
 10
85.350646972656
 20
116.867919921875
 30
0.0
 11
75.06364440918
 21
116.867919921875
 31
0.0
  0
LINE
  5
217
100
AcDbEntity
  8
0
  6
CONTINUOUS
 62
          15
100
AcDbLine
 10
75.06364440918
 20
125.097526550293
 30
0.0
 11
78.578399658203
 21
125.097526550293
 31
0.0
  0
LINE
  5
218
100
AcDbEntity
  8
0
  6
CONTINUOUS
 62
          15
100
AcDbLine
 10
24.48588180542
 20
125.097526550293
 30
0.0
 11
75.06364440918
 21
125.097526550293
 31
0.0
  0
LINE
  5
219
100
AcDbEntity
  8
0
  6
CONTINUOUS
 62
          15
100
AcDbLine
 10
78.578399658203
 20
125.097526550293
 30
0.0
 11
85.350646972656
 21
125.097526550293
 31
0.0
  0
LINE
  5
21A
100
AcDbEntity
  8
0
  6
CONTINUOUS
 62
          15
100
AcDbLine
 10
64.982360839844
 20
125.097526550293
 30
0.0
 11
64.982360839844
 21
113.526596069336
 31
0.0
  0
LINE
  5
21B
100
AcDbEntity
  8
0
  6
CONTINUOUS
 62
          15
100
AcDbLine
 10
68.205657958984
 20
125.097526550293
 30
0.0
 11
68.205657958984
 21
113.526596069336
 31
0.0
  0
LINE
  5
21C
100
AcDbEntity
  8
0
  6
CONTINUOUS
 62
          15
100
AcDbLine
 10
71.634628295898
 20
125.097526550293
 30
0.0
 11
71.634628295898
 21
113.526596069336
 31
0.0
  0
LINE
  5
21D
100
AcDbEntity
  8
0
  6
CONTINUOUS
 62
          15
100
AcDbLine
 10
75.06364440918
 20
125.097526550293
 30
0.0
 11
75.06364440918
 21
113.526596069336
 31
0.0
  0
LINE
  5
21E
100
AcDbEntity
  8
0
  6
CONTINUOUS
 62
          15
100
AcDbLine
 10
81.921630859375
 20
125.097526550293
 30
0.0
 11
81.921630859375
 21
113.526596069336
 31
0.0
  0
LINE
  5
21F
100
AcDbEntity
  8
0
  6
CONTINUOUS
 62
          15
100
AcDbLine
 10
85.350646972656
 20
125.097526550293
 30
0.0
 11
85.350646972656
 21
113.526596069336
 31
0.0
  0
LINE
  5
220
100
AcDbEntity
  8
0
  6
CONTINUOUS
 62
          15
100
AcDbLine
 10
78.578399658203
 20
125.097526550293
 30
0.0
 11
78.578399658203
 21
113.526596069336
 31
0.0
  0
LINE
  5
221
100
AcDbEntity
  8
0
  6
CONTINUOUS
 62
          15
100
AcDbLine
 10
66.921653747559
 20
122.647994995117
 30
0.0
 11
66.078430175781
 21
123.491218566895
 31
0.0
  0
LINE
  5
222
100
AcDbEntity
  8
0
  6
CONTINUOUS
 62
          15
100
AcDbLine
 10
65.919723510742
 20
120.272361755371
 30
0.0
 11
67.080360412598
 21
120.272361755371
 31
0.0
  0
LINE
  5
223
100
AcDbEntity
  8
0
  6
CONTINUOUS
 62
          15
100
AcDbLine
 10
67.080360412598
 20
120.272361755371
 30
0.0
 11
67.080360412598
 21
118.214019775391
 31
0.0
  0
LINE
  5
224
100
AcDbEntity
  8
0
  6
CONTINUOUS
 62
          15
100
AcDbLine
 10
67.080360412598
 20
118.214019775391
 30
0.0
 11
65.919723510742
 21
118.214019775391
 31
0.0
  0
LINE
  5
225
100
AcDbEntity
  8
0
  6
CONTINUOUS
 62
          15
100
AcDbLine
 10
65.919723510742
 20
118.214019775391
 30
0.0
 11
65.919723510742
 21
120.272361755371
 31
0.0
  0
LINE
  5
226
100
AcDbEntity
  8
0
  6
CONTINUOUS
 62
          15
100
AcDbLine
 10
65.919723510742
 20
118.904830932617
 30
0.0
 11
67.080360412598
 21
118.904830932617
 31
0.0
  0
ELLIPSE
  5
227
100
AcDbEntity
  8
0
  6
CONTINUOUS
 62
          15
100
AcDbEllipse
 10
66.500030517578
 20
123.069595336914
 30
0.0
 11
0.8444507718086235
 21
-0.0000000369121156
 31
0.0
210
0.0
220
0.0
230
1.0
 40
0.624739254181
 41
0.0
 42
6.2831853071795862
  0
LINE
  5
228
100
AcDbEntity
  8
0
  6
CONTINUOUS
 62
          15
100
AcDbLine
 10
70.173080444336
 20
122.647994995117
 30
0.0
 11
69.329856872559
 21
123.491218566895
 31
0.0
  0
LINE
  5
229
100
AcDbEntity
  8
0
  6
CONTINUOUS
 62
          15
100
AcDbLine
 10
69.17115020752
 20
120.272361755371
 30
0.0
 11
70.331787109375
 21
120.272361755371
 31
0.0
  0
LINE
  5
22A
100
AcDbEntity
  8
0
  6
CONTINUOUS
 62
          15
100
AcDbLine
 10
70.331787109375
 20
120.272361755371
 30
0.0
 11
70.331787109375
 21
118.214019775391
 31
0.0
  0
LINE
  5
22B
100
AcDbEntity
  8
0
  6
CONTINUOUS
 62
          15
100
AcDbLine
 10
70.331787109375
 20
118.214019775391
 30
0.0
 11
69.17115020752
 21
118.214019775391
 31
0.0
  0
LINE
  5
22C
100
AcDbEntity
  8
0
  6
CONTINUOUS
 62
          15
100
AcDbLine
 10
69.17115020752
 20
118.214019775391
 30
0.0
 11
69.17115020752
 21
120.272361755371
 31
0.0
  0
LINE
  5
22D
100
AcDbEntity
  8
0
  6
CONTINUOUS
 62
          15
100
AcDbLine
 10
69.17115020752
 20
118.904830932617
 30
0.0
 11
70.331787109375
 21
118.904830932617
 31
0.0
  0
ELLIPSE
  5
22E
100
AcDbEntity
  8
0
  6
CONTINUOUS
 62
          15
100
AcDbEllipse
 10
69.75146484375
 20
123.069595336914
 30
0.0
 11
0.8444507718086235
 21
-0.0000000369121156
 31
0.0
210
0.0
220
0.0
230
1.0
 40
0.624739254181
 41
0.0
 42
6.2831853071795862
  0
LINE
  5
22F
100
AcDbEntity
  8
0
  6
CONTINUOUS
 62
          15
100
AcDbLine
 10
73.622772216797
 20
122.647994995117
 30
0.0
 11
72.77954864502
 21
123.491218566895
 31
0.0
  0
LINE
  5
230
100
AcDbEntity
  8
0
  6
CONTINUOUS
 62
          15
100
AcDbLine
 10
72.62084197998
 20
120.272361755371
 30
0.0
 11
73.781478881836
 21
120.272361755371
 31
0.0
  0
LINE
  5
231
100
AcDbEntity
  8
0
  6
CONTINUOUS
 62
          15
100
AcDbLine
 10
73.781478881836
 20
120.272361755371
 30
0.0
 11
73.781478881836
 21
118.214019775391
 31
0.0
  0
LINE
  5
232
100
AcDbEntity
  8
0
  6
CONTINUOUS
 62
          15
100
AcDbLine
 10
73.781478881836
 20
118.214019775391
 30
0.0
 11
72.62084197998
 21
118.214019775391
 31
0.0
  0
LINE
  5
233
100
AcDbEntity
  8
0
  6
CONTINUOUS
 62
          15
100
AcDbLine
 10
72.62084197998
 20
118.214019775391
 30
0.0
 11
72.62084197998
 21
120.272361755371
 31
0.0
  0
LINE
  5
234
100
AcDbEntity
  8
0
  6
CONTINUOUS
 62
          15
100
AcDbLine
 10
72.62084197998
 20
118.904830932617
 30
0.0
 11
73.781478881836
 21
118.904830932617
 31
0.0
  0
ELLIPSE
  5
235
100
AcDbEntity
  8
0
  6
CONTINUOUS
 62
          15
100
AcDbEllipse
 10
73.201164245605
 20
123.069595336914
 30
0.0
 11
0.8444507718086235
 21
-0.0000000369121156
 31
0.0
210
0.0
220
0.0
230
1.0
 40
0.624739254181
 41
0.0
 42
6.2831853071795862
  0
LINE
  5
236
100
AcDbEntity
  8
0
  6
CONTINUOUS
 62
          15
100
AcDbLine
 10
65.222457885742
 20
116.867919921875
 30
0.0
 11
44.854167938232
 21
116.867919921875
 31
0.0
  0
LINE
  5
237
100
AcDbEntity
  8
0
  6
CONTINUOUS
 62
          15
100
AcDbLine
 10
44.854167938232
 20
125.097526550293
 30
0.0
 11
58.450206756592
 21
125.097526550293
 31
0.0
  0
LINE
  5
238
100
AcDbEntity
  8
0
  6
CONTINUOUS
 62
          15
100
AcDbLine
 10
58.450206756592
 20
125.097526550293
 30
0.0
 11
65.222457885742
 21
125.097526550293
 31
0.0
  0
LINE
  5
239
100
AcDbEntity
  8
0
  6
CONTINUOUS
 62
          15
100
AcDbLine
 10
44.854167938232
 20
125.097526550293
 30
0.0
 11
44.854167938232
 21
114.330467224121
 31
0.0
  0
LINE
  5
23A
100
AcDbEntity
  8
0
  6
CONTINUOUS
 62
          15
100
AcDbLine
 10
48.077465057373
 20
125.097526550293
 30
0.0
 11
48.077465057373
 21
113.526596069336
 31
0.0
  0
LINE
  5
23B
100
AcDbEntity
  8
0
  6
CONTINUOUS
 62
          15
100
AcDbLine
 10
51.506435394287
 20
125.097526550293
 30
0.0
 11
51.506435394287
 21
113.526596069336
 31
0.0
  0
LINE
  5
23C
100
AcDbEntity
  8
0
  6
CONTINUOUS
 62
          15
100
AcDbLine
 10
54.935451507568
 20
125.097526550293
 30
0.0
 11
54.935451507568
 21
113.526596069336
 31
0.0
  0
LINE
  5
23D
100
AcDbEntity
  8
0
  6
CONTINUOUS
 62
          15
100
AcDbLine
 10
61.793437957764
 20
125.097526550293
 30
0.0
 11
61.793437957764
 21
113.526596069336
 31
0.0
  0
LINE
  5
23E
100
AcDbEntity
  8
0
  6
CONTINUOUS
 62
          15
100
AcDbLine
 10
58.450206756592
 20
125.097526550293
 30
0.0
 11
58.450206756592
 21
113.526596069336
 31
0.0
  0
LINE
  5
23F
100
AcDbEntity
  8
0
  6
CONTINUOUS
 62
          15
100
AcDbLine
 10
46.793460845947
 20
122.647994995117
 30
0.0
 11
45.95023727417
 21
123.491218566895
 31
0.0
  0
LINE
  5
240
100
AcDbEntity
  8
0
  6
CONTINUOUS
 62
          15
100
AcDbLine
 10
45.791530609131
 20
120.272361755371
 30
0.0
 11
46.952167510986
 21
120.272361755371
 31
0.0
  0
LINE
  5
241
100
AcDbEntity
  8
0
  6
CONTINUOUS
 62
          15
100
AcDbLine
 10
46.952167510986
 20
120.272361755371
 30
0.0
 11
46.952167510986
 21
118.214019775391
 31
0.0
  0
LINE
  5
242
100
AcDbEntity
  8
0
  6
CONTINUOUS
 62
          15
100
AcDbLine
 10
46.952167510986
 20
118.214019775391
 30
0.0
 11
45.791530609131
 21
118.214019775391
 31
0.0
  0
LINE
  5
243
100
AcDbEntity
  8
0
  6
CONTINUOUS
 62
          15
100
AcDbLine
 10
45.791530609131
 20
118.214019775391
 30
0.0
 11
45.791530609131
 21
120.272361755371
 31
0.0
  0
LINE
  5
244
100
AcDbEntity
  8
0
  6
CONTINUOUS
 62
          15
100
AcDbLine
 10
45.791530609131
 20
118.904830932617
 30
0.0
 11
46.952167510986
 21
118.904830932617
 31
0.0
  0
ELLIPSE
  5
245
100
AcDbEntity
  8
0
  6
CONTINUOUS
 62
          15
100
AcDbEllipse
 10
46.371837615967
 20
123.069595336914
 30
0.0
 11
0.8444507718086235
 21
-0.0000000369121156
 31
0.0
210
0.0
220
0.0
230
1.0
 40
0.624739254181
 41
0.0
 42
6.2831853071795862
  0
LINE
  5
246
100
AcDbEntity
  8
0
  6
CONTINUOUS
 62
          15
100
AcDbLine
 10
50.044887542725
 20
122.647994995117
 30
0.0
 11
49.201663970947
 21
123.491218566895
 31
0.0
  0
LINE
  5
247
100
AcDbEntity
  8
0
  6
CONTINUOUS
 62
          15
100
AcDbLine
 10
49.042957305908
 20
120.272361755371
 30
0.0
 11
50.203594207764
 21
120.272361755371
 31
0.0
  0
LINE
  5
248
100
AcDbEntity
  8
0
  6
CONTINUOUS
 62
          15
100
AcDbLine
 10
50.203594207764
 20
120.272361755371
 30
0.0
 11
50.203594207764
 21
118.214019775391
 31
0.0
  0
LINE
  5
249
100
AcDbEntity
  8
0
  6
CONTINUOUS
 62
          15
100
AcDbLine
 10
50.203594207764
 20
118.214019775391
 30
0.0
 11
49.042957305908
 21
118.214019775391
 31
0.0
  0
LINE
  5
24A
100
AcDbEntity
  8
0
  6
CONTINUOUS
 62
          15
100
AcDbLine
 10
49.042957305908
 20
118.214019775391
 30
0.0
 11
49.042957305908
 21
120.272361755371
 31
0.0
  0
LINE
  5
24B
100
AcDbEntity
  8
0
  6
CONTINUOUS
 62
          15
100
AcDbLine
 10
49.042957305908
 20
118.904830932617
 30
0.0
 11
50.203594207764
 21
118.904830932617
 31
0.0
  0
ELLIPSE
  5
24C
100
AcDbEntity
  8
0
  6
CONTINUOUS
 62
          15
100
AcDbEllipse
 10
49.623275756836
 20
123.069595336914
 30
0.0
 11
0.8444507718086235
 21
-0.0000000369121156
 31
0.0
210
0.0
220
0.0
230
1.0
 40
0.624739254181
 41
0.0
 42
6.2831853071795862
  0
LINE
  5
24D
100
AcDbEntity
  8
0
  6
CONTINUOUS
 62
          15
100
AcDbLine
 10
53.494583129883
 20
122.647994995117
 30
0.0
 11
52.651359558105
 21
123.491218566895
 31
0.0
  0
LINE
  5
24E
100
AcDbEntity
  8
0
  6
CONTINUOUS
 62
          15
100
AcDbLine
 10
52.492652893066
 20
120.272361755371
 30
0.0
 11
53.653289794922
 21
120.272361755371
 31
0.0
  0
LINE
  5
24F
100
AcDbEntity
  8
0
  6
CONTINUOUS
 62
          15
100
AcDbLine
 10
53.653289794922
 20
120.272361755371
 30
0.0
 11
53.653289794922
 21
118.214019775391
 31
0.0
  0
LINE
  5
250
100
AcDbEntity
  8
0
  6
CONTINUOUS
 62
          15
100
AcDbLine
 10
53.653289794922
 20
118.214019775391
 30
0.0
 11
52.492652893066
 21
118.214019775391
 31
0.0
  0
LINE
  5
251
100
AcDbEntity
  8
0
  6
CONTINUOUS
 62
          15
100
AcDbLine
 10
52.492652893066
 20
118.214019775391
 30
0.0
 11
52.492652893066
 21
120.272361755371
 31
0.0
  0
LINE
  5
252
100
AcDbEntity
  8
0
  6
CONTINUOUS
 62
          15
100
AcDbLine
 10
52.492652893066
 20
118.904830932617
 30
0.0
 11
53.653289794922
 21
118.904830932617
 31
0.0
  0
ELLIPSE
  5
253
100
AcDbEntity
  8
0
  6
CONTINUOUS
 62
          15
100
AcDbEllipse
 10
53.072971343994
 20
123.069595336914
 30
0.0
 11
0.8444507718086235
 21
-0.0000000369121156
 31
0.0
210
0.0
220
0.0
230
1.0
 40
0.624739254181
 41
0.0
 42
6.2831853071795862
  0
LINE
  5
254
100
AcDbEntity
  8
0
  6
CONTINUOUS
 62
          15
100
AcDbLine
 10
57.102882385254
 20
122.647994995117
 30
0.0
 11
56.259658813477
 21
123.491218566895
 31
0.0
  0
LINE
  5
255
100
AcDbEntity
  8
0
  6
CONTINUOUS
 62
          15
100
AcDbLine
 10
56.100952148438
 20
120.272361755371
 30
0.0
 11
57.261589050293
 21
120.272361755371
 31
0.0
  0
LINE
  5
256
100
AcDbEntity
  8
0
  6
CONTINUOUS
 62
          15
100
AcDbLine
 10
57.261589050293
 20
120.272361755371
 30
0.0
 11
57.261589050293
 21
118.214019775391
 31
0.0
  0
LINE
  5
257
100
AcDbEntity
  8
0
  6
CONTINUOUS
 62
          15
100
AcDbLine
 10
57.261589050293
 20
118.214019775391
 30
0.0
 11
56.100952148438
 21
118.214019775391
 31
0.0
  0
LINE
  5
258
100
AcDbEntity
  8
0
  6
CONTINUOUS
 62
          15
100
AcDbLine
 10
56.100952148438
 20
118.214019775391
 30
0.0
 11
56.100952148438
 21
120.272361755371
 31
0.0
  0
LINE
  5
259
100
AcDbEntity
  8
0
  6
CONTINUOUS
 62
          15
100
AcDbLine
 10
56.100952148438
 20
118.904830932617
 30
0.0
 11
57.261589050293
 21
118.904830932617
 31
0.0
  0
ELLIPSE
  5
25A
100
AcDbEntity
  8
0
  6
CONTINUOUS
 62
          15
100
AcDbEllipse
 10
56.681270599365
 20
123.069595336914
 30
0.0
 11
0.8444507718086235
 21
-0.0000000369121156
 31
0.0
210
0.0
220
0.0
230
1.0
 40
0.624739254181
 41
0.0
 42
6.2831853071795862
  0
LINE
  5
25B
100
AcDbEntity
  8
0
  6
CONTINUOUS
 62
          15
100
AcDbLine
 10
60.671527862549
 20
122.647994995117
 30
0.0
 11
59.828304290771
 21
123.491218566895
 31
0.0
  0
LINE
  5
25C
100
AcDbEntity
  8
0
  6
CONTINUOUS
 62
          15
100
AcDbLine
 10
59.669597625732
 20
120.272361755371
 30
0.0
 11
60.830234527588
 21
120.272361755371
 31
0.0
  0
LINE
  5
25D
100
AcDbEntity
  8
0
  6
CONTINUOUS
 62
          15
100
AcDbLine
 10
60.830234527588
 20
120.272361755371
 30
0.0
 11
60.830234527588
 21
118.214019775391
 31
0.0
  0
LINE
  5
25E
100
AcDbEntity
  8
0
  6
CONTINUOUS
 62
          15
100
AcDbLine
 10
60.830234527588
 20
118.214019775391
 30
0.0
 11
59.669597625732
 21
118.214019775391
 31
0.0
  0
LINE
  5
25F
100
AcDbEntity
  8
0
  6
CONTINUOUS
 62
          15
100
AcDbLine
 10
59.669597625732
 20
118.214019775391
 30
0.0
 11
59.669597625732
 21
120.272361755371
 31
0.0
  0
LINE
  5
260
100
AcDbEntity
  8
0
  6
CONTINUOUS
 62
          15
100
AcDbLine
 10
59.669597625732
 20
118.904830932617
 30
0.0
 11
60.830234527588
 21
118.904830932617
 31
0.0
  0
ELLIPSE
  5
261
100
AcDbEntity
  8
0
  6
CONTINUOUS
 62
          15
100
AcDbEllipse
 10
60.24991607666
 20
123.069595336914
 30
0.0
 11
0.8444507718086235
 21
-0.0000000369121156
 31
0.0
210
0.0
220
0.0
230
1.0
 40
0.624739254181
 41
0.0
 42
6.2831853071795862
  0
LINE
  5
262
100
AcDbEntity
  8
0
  6
CONTINUOUS
 62
          15
100
AcDbLine
 10
63.962619781494
 20
122.647994995117
 30
0.0
 11
63.119396209717
 21
123.491218566895
 31
0.0
  0
LINE
  5
263
100
AcDbEntity
  8
0
  6
CONTINUOUS
 62
          15
100
AcDbLine
 10
62.960689544678
 20
120.272361755371
 30
0.0
 11
64.12133026123
 21
120.272361755371
 31
0.0
  0
LINE
  5
264
100
AcDbEntity
  8
0
  6
CONTINUOUS
 62
          15
100
AcDbLine
 10
64.12133026123
 20
120.272361755371
 30
0.0
 11
64.12133026123
 21
118.214019775391
 31
0.0
  0
LINE
  5
265
100
AcDbEntity
  8
0
  6
CONTINUOUS
 62
          15
100
AcDbLine
 10
64.12133026123
 20
118.214019775391
 30
0.0
 11
62.960689544678
 21
118.214019775391
 31
0.0
  0
LINE
  5
266
100
AcDbEntity
  8
0
  6
CONTINUOUS
 62
          15
100
AcDbLine
 10
62.960689544678
 20
118.214019775391
 30
0.0
 11
62.960689544678
 21
120.272361755371
 31
0.0
  0
LINE
  5
267
100
AcDbEntity
  8
0
  6
CONTINUOUS
 62
          15
100
AcDbLine
 10
62.960689544678
 20
118.904830932617
 30
0.0
 11
64.12133026123
 21
118.904830932617
 31
0.0
  0
ELLIPSE
  5
268
100
AcDbEntity
  8
0
  6
CONTINUOUS
 62
          15
100
AcDbEllipse
 10
63.540996551514
 20
123.069595336914
 30
0.0
 11
0.8444507718086235
 21
-0.0000000369121156
 31
0.0
210
0.0
220
0.0
230
1.0
 40
0.624739254181
 41
0.0
 42
6.2831853071795862
  0
LINE
  5
269
100
AcDbEntity
  8
0
  6
CONTINUOUS
 62
          15
100
AcDbLine
 10
24.48588180542
 20
121.314712524414
 30
0.0
 11
85.350646972656
 21
121.314712524414
 31
0.0
  0
LINE
  5
26A
100
AcDbEntity
  8
0
  6
CONTINUOUS
 62
          15
100
AcDbLine
 10
115.697227478027
 20
116.867919921875
 30
0.0
 11
85.350601196289
 21
116.867919921875
 31
0.0
  0
LINE
  5
26B
100
AcDbEntity
  8
0
  6
CONTINUOUS
 62
          15
100
AcDbLine
 10
85.350646972656
 20
125.097526550293
 30
0.0
 11
98.946685791016
 21
125.097526550293
 31
0.0
  0
LINE
  5
26C
100
AcDbEntity
  8
0
  6
CONTINUOUS
 62
          15
100
AcDbLine
 10
98.946685791016
 20
125.097526550293
 30
0.0
 11
115.697227478027
 21
125.097526550293
 31
0.0
  0
LINE
  5
26D
100
AcDbEntity
  8
0
  6
CONTINUOUS
 62
          15
100
AcDbLine
 10
85.350646972656
 20
125.097526550293
 30
0.0
 11
85.350646972656
 21
114.330467224121
 31
0.0
  0
LINE
  5
26E
100
AcDbEntity
  8
0
  6
CONTINUOUS
 62
          15
100
AcDbLine
 10
88.573944091797
 20
125.097526550293
 30
0.0
 11
88.573944091797
 21
113.526596069336
 31
0.0
  0
LINE
  5
26F
100
AcDbEntity
  8
0
  6
CONTINUOUS
 62
          15
100
AcDbLine
 10
92.002914428711
 20
125.097526550293
 30
0.0
 11
92.002914428711
 21
114.330467224121
 31
0.0
  0
LINE
  5
270
100
AcDbEntity
  8
0
  6
CONTINUOUS
 62
          15
100
AcDbLine
 10
95.431930541992
 20
125.097526550293
 30
0.0
 11
95.431930541992
 21
114.330467224121
 31
0.0
  0
LINE
  5
271
100
AcDbEntity
  8
0
  6
CONTINUOUS
 62
          15
100
AcDbLine
 10
102.289916992188
 20
125.097526550293
 30
0.0
 11
102.289916992188
 21
113.526596069336
 31
0.0
  0
LINE
  5
272
100
AcDbEntity
  8
0
  6
CONTINUOUS
 62
          15
100
AcDbLine
 10
105.718933105469
 20
125.097526550293
 30
0.0
 11
105.718933105469
 21
109.602325439453
 31
0.0
  0
LINE
  5
273
100
AcDbEntity
  8
0
  6
CONTINUOUS
 62
          15
100
AcDbLine
 10
98.946685791016
 20
125.097526550293
 30
0.0
 11
98.946685791016
 21
113.526596069336
 31
0.0
  0
LINE
  5
274
100
AcDbEntity
  8
0
  6
CONTINUOUS
 62
          15
100
AcDbLine
 10
87.289939880371
 20
122.647994995117
 30
0.0
 11
86.446716308594
 21
123.491218566895
 31
0.0
  0
LINE
  5
275
100
AcDbEntity
  8
0
  6
CONTINUOUS
 62
          15
100
AcDbLine
 10
86.288009643555
 20
120.272361755371
 30
0.0
 11
87.44864654541
 21
120.272361755371
 31
0.0
  0
LINE
  5
276
100
AcDbEntity
  8
0
  6
CONTINUOUS
 62
          15
100
AcDbLine
 10
87.44864654541
 20
120.272361755371
 30
0.0
 11
87.44864654541
 21
118.214019775391
 31
0.0
  0
LINE
  5
277
100
AcDbEntity
  8
0
  6
CONTINUOUS
 62
          15
100
AcDbLine
 10
87.44864654541
 20
118.214019775391
 30
0.0
 11
86.288009643555
 21
118.214019775391
 31
0.0
  0
LINE
  5
278
100
AcDbEntity
  8
0
  6
CONTINUOUS
 62
          15
100
AcDbLine
 10
86.288009643555
 20
118.214019775391
 30
0.0
 11
86.288009643555
 21
120.272361755371
 31
0.0
  0
LINE
  5
279
100
AcDbEntity
  8
0
  6
CONTINUOUS
 62
          15
100
AcDbLine
 10
86.288009643555
 20
118.904830932617
 30
0.0
 11
87.44864654541
 21
118.904830932617
 31
0.0
  0
ELLIPSE
  5
27A
100
AcDbEntity
  8
0
  6
CONTINUOUS
 62
          15
100
AcDbEllipse
 10
86.868316650391
 20
123.069595336914
 30
0.0
 11
0.8444507718086235
 21
-0.0000000369121156
 31
0.0
210
0.0
220
0.0
230
1.0
 40
0.624739254181
 41
0.0
 42
6.2831853071795862
  0
LINE
  5
27B
100
AcDbEntity
  8
0
  6
CONTINUOUS
 62
          15
100
AcDbLine
 10
90.541366577148
 20
122.647994995117
 30
0.0
 11
89.698143005371
 21
123.491218566895
 31
0.0
  0
LINE
  5
27C
100
AcDbEntity
  8
0
  6
CONTINUOUS
 62
          15
100
AcDbLine
 10
89.539436340332
 20
120.272361755371
 30
0.0
 11
90.700073242188
 21
120.272361755371
 31
0.0
  0
LINE
  5
27D
100
AcDbEntity
  8
0
  6
CONTINUOUS
 62
          15
100
AcDbLine
 10
90.700073242188
 20
120.272361755371
 30
0.0
 11
90.700073242188
 21
118.214019775391
 31
0.0
  0
LINE
  5
27E
100
AcDbEntity
  8
0
  6
CONTINUOUS
 62
          15
100
AcDbLine
 10
90.700073242188
 20
118.214019775391
 30
0.0
 11
89.539436340332
 21
118.214019775391
 31
0.0
  0
LINE
  5
27F
100
AcDbEntity
  8
0
  6
CONTINUOUS
 62
          15
100
AcDbLine
 10
89.539436340332
 20
118.214019775391
 30
0.0
 11
89.539436340332
 21
120.272361755371
 31
0.0
  0
LINE
  5
280
100
AcDbEntity
  8
0
  6
CONTINUOUS
 62
          15
100
AcDbLine
 10
89.539436340332
 20
118.904830932617
 30
0.0
 11
90.700073242188
 21
118.904830932617
 31
0.0
  0
ELLIPSE
  5
281
100
AcDbEntity
  8
0
  6
CONTINUOUS
 62
          15
100
AcDbEllipse
 10
90.119750976563
 20
123.069595336914
 30
0.0
 11
0.8444507718086235
 21
-0.0000000369121156
 31
0.0
210
0.0
220
0.0
230
1.0
 40
0.624739254181
 41
0.0
 42
6.2831853071795862
  0
LINE
  5
282
100
AcDbEntity
  8
0
  6
CONTINUOUS
 62
          15
100
AcDbLine
 10
93.991058349609
 20
122.647994995117
 30
0.0
 11
93.147834777832
 21
123.491218566895
 31
0.0
  0
LINE
  5
283
100
AcDbEntity
  8
0
  6
CONTINUOUS
 62
          15
100
AcDbLine
 10
92.989128112793
 20
120.272361755371
 30
0.0
 11
94.149765014648
 21
120.272361755371
 31
0.0
  0
LINE
  5
284
100
AcDbEntity
  8
0
  6
CONTINUOUS
 62
          15
100
AcDbLine
 10
94.149765014648
 20
120.272361755371
 30
0.0
 11
94.149765014648
 21
118.214019775391
 31
0.0
  0
LINE
  5
285
100
AcDbEntity
  8
0
  6
CONTINUOUS
 62
          15
100
AcDbLine
 10
94.149765014648
 20
118.214019775391
 30
0.0
 11
92.989128112793
 21
118.214019775391
 31
0.0
  0
LINE
  5
286
100
AcDbEntity
  8
0
  6
CONTINUOUS
 62
          15
100
AcDbLine
 10
92.989128112793
 20
118.214019775391
 30
0.0
 11
92.989128112793
 21
120.272361755371
 31
0.0
  0
LINE
  5
287
100
AcDbEntity
  8
0
  6
CONTINUOUS
 62
          15
100
AcDbLine
 10
92.989128112793
 20
118.904830932617
 30
0.0
 11
94.149765014648
 21
118.904830932617
 31
0.0
  0
ELLIPSE
  5
288
100
AcDbEntity
  8
0
  6
CONTINUOUS
 62
          15
100
AcDbEllipse
 10
93.569450378418
 20
123.069595336914
 30
0.0
 11
0.8444507718086235
 21
-0.0000000369121156
 31
0.0
210
0.0
220
0.0
230
1.0
 40
0.624739254181
 41
0.0
 42
6.2831853071795862
  0
LINE
  5
289
100
AcDbEntity
  8
0
  6
CONTINUOUS
 62
          15
100
AcDbLine
 10
97.59935760498
 20
122.647994995117
 30
0.0
 11
96.756134033203
 21
123.491218566895
 31
0.0
  0
LINE
  5
28A
100
AcDbEntity
  8
0
  6
CONTINUOUS
 62
          15
100
AcDbLine
 10
96.597427368164
 20
120.272361755371
 30
0.0
 11
97.75806427002
 21
120.272361755371
 31
0.0
  0
LINE
  5
28B
100
AcDbEntity
  8
0
  6
CONTINUOUS
 62
          15
100
AcDbLine
 10
97.75806427002
 20
120.272361755371
 30
0.0
 11
97.75806427002
 21
118.214019775391
 31
0.0
  0
LINE
  5
28C
100
AcDbEntity
  8
0
  6
CONTINUOUS
 62
          15
100
AcDbLine
 10
97.75806427002
 20
118.214019775391
 30
0.0
 11
96.597427368164
 21
118.214019775391
 31
0.0
  0
LINE
  5
28D
100
AcDbEntity
  8
0
  6
CONTINUOUS
 62
          15
100
AcDbLine
 10
96.597427368164
 20
118.214019775391
 30
0.0
 11
96.597427368164
 21
120.272361755371
 31
0.0
  0
LINE
  5
28E
100
AcDbEntity
  8
0
  6
CONTINUOUS
 62
          15
100
AcDbLine
 10
96.597427368164
 20
118.904830932617
 30
0.0
 11
97.75806427002
 21
118.904830932617
 31
0.0
  0
ELLIPSE
  5
28F
100
AcDbEntity
  8
0
  6
CONTINUOUS
 62
          15
100
AcDbEllipse
 10
97.177749633789
 20
123.069595336914
 30
0.0
 11
0.8444507718086235
 21
-0.0000000369121156
 31
0.0
210
0.0
220
0.0
230
1.0
 40
0.624739254181
 41
0.0
 42
6.2831853071795862
  0
LINE
  5
290
100
AcDbEntity
  8
0
  6
CONTINUOUS
 62
          15
100
AcDbLine
 10
101.168006896973
 20
122.647994995117
 30
0.0
 11
100.324783325195
 21
123.491218566895
 31
0.0
  0
LINE
  5
291
100
AcDbEntity
  8
0
  6
CONTINUOUS
 62
          15
100
AcDbLine
 10
100.166076660156
 20
120.272361755371
 30
0.0
 11
101.326713562012
 21
120.272361755371
 31
0.0
  0
LINE
  5
292
100
AcDbEntity
  8
0
  6
CONTINUOUS
 62
          15
100
AcDbLine
 10
101.326713562012
 20
120.272361755371
 30
0.0
 11
101.326713562012
 21
118.214019775391
 31
0.0
  0
LINE
  5
293
100
AcDbEntity
  8
0
  6
CONTINUOUS
 62
          15
100
AcDbLine
 10
101.326713562012
 20
118.214019775391
 30
0.0
 11
100.166076660156
 21
118.214019775391
 31
0.0
  0
LINE
  5
294
100
AcDbEntity
  8
0
  6
CONTINUOUS
 62
          15
100
AcDbLine
 10
100.166076660156
 20
118.214019775391
 30
0.0
 11
100.166076660156
 21
120.272361755371
 31
0.0
  0
LINE
  5
295
100
AcDbEntity
  8
0
  6
CONTINUOUS
 62
          15
100
AcDbLine
 10
100.166076660156
 20
118.904830932617
 30
0.0
 11
101.326713562012
 21
118.904830932617
 31
0.0
  0
ELLIPSE
  5
296
100
AcDbEntity
  8
0
  6
CONTINUOUS
 62
          15
100
AcDbEllipse
 10
100.746391296387
 20
123.069595336914
 30
0.0
 11
0.8444507718086235
 21
-0.0000000369121156
 31
0.0
210
0.0
220
0.0
230
1.0
 40
0.624739254181
 41
0.0
 42
6.2831853071795862
  0
LINE
  5
297
100
AcDbEntity
  8
0
  6
CONTINUOUS
 62
          15
100
AcDbLine
 10
104.459098815918
 20
122.647994995117
 30
0.0
 11
103.615875244141
 21
123.491218566895
 31
0.0
  0
LINE
  5
298
100
AcDbEntity
  8
0
  6
CONTINUOUS
 62
          15
100
AcDbLine
 10
103.457168579102
 20
120.272361755371
 30
0.0
 11
104.617805480957
 21
120.272361755371
 31
0.0
  0
LINE
  5
299
100
AcDbEntity
  8
0
  6
CONTINUOUS
 62
          15
100
AcDbLine
 10
104.617805480957
 20
120.272361755371
 30
0.0
 11
104.617805480957
 21
118.214019775391
 31
0.0
  0
LINE
  5
29A
100
AcDbEntity
  8
0
  6
CONTINUOUS
 62
          15
100
AcDbLine
 10
104.617805480957
 20
118.214019775391
 30
0.0
 11
103.457168579102
 21
118.214019775391
 31
0.0
  0
LINE
  5
29B
100
AcDbEntity
  8
0
  6
CONTINUOUS
 62
          15
100
AcDbLine
 10
103.457168579102
 20
118.214019775391
 30
0.0
 11
103.457168579102
 21
120.272361755371
 31
0.0
  0
LINE
  5
29C
100
AcDbEntity
  8
0
  6
CONTINUOUS
 62
          15
100
AcDbLine
 10
103.457168579102
 20
118.904830932617
 30
0.0
 11
104.617805480957
 21
118.904830932617
 31
0.0
  0
ELLIPSE
  5
29D
100
AcDbEntity
  8
0
  6
CONTINUOUS
 62
          15
100
AcDbEllipse
 10
104.037475585938
 20
123.069595336914
 30
0.0
 11
0.8444507718086235
 21
-0.0000000369121156
 31
0.0
210
0.0
220
0.0
230
1.0
 40
0.624739254181
 41
0.0
 42
6.2831853071795862
  0
LINE
  5
29E
100
AcDbEntity
  8
0
  6
CONTINUOUS
 62
          15
100
AcDbLine
 10
85.350646972656
 20
121.314712524414
 30
0.0
 11
105.718933105469
 21
121.314712524414
 31
0.0
  0
LINE
  5
29F
100
AcDbEntity
  8
0
  6
CONTINUOUS
 62
          15
100
AcDbLine
 10
105.718933105469
 20
125.097526550293
 30
0.0
 11
105.718933105469
 21
114.330467224121
 31
0.0
  0
LINE
  5
2A0
100
AcDbEntity
  8
0
  6
CONTINUOUS
 62
          15
100
AcDbLine
 10
108.942237854004
 20
125.097526550293
 30
0.0
 11
108.942237854004
 21
113.526596069336
 31
0.0
  0
LINE
  5
2A1
100
AcDbEntity
  8
0
  6
CONTINUOUS
 62
          15
100
AcDbLine
 10
112.371208190918
 20
125.097526550293
 30
0.0
 11
112.371208190918
 21
113.526596069336
 31
0.0
  0
LINE
  5
2A2
100
AcDbEntity
  8
0
  6
CONTINUOUS
 62
          15
100
AcDbLine
 10
107.658210754395
 20
122.647994995117
 30
0.0
 11
106.815010070801
 21
123.491218566895
 31
0.0
  0
LINE
  5
2A3
100
AcDbEntity
  8
0
  6
CONTINUOUS
 62
          15
100
AcDbLine
 10
106.656303405762
 20
120.272361755371
 30
0.0
 11
107.816917419434
 21
120.272361755371
 31
0.0
  0
LINE
  5
2A4
100
AcDbEntity
  8
0
  6
CONTINUOUS
 62
          15
100
AcDbLine
 10
107.816917419434
 20
120.272361755371
 30
0.0
 11
107.816917419434
 21
118.214019775391
 31
0.0
  0
LINE
  5
2A5
100
AcDbEntity
  8
0
  6
CONTINUOUS
 62
          15
100
AcDbLine
 10
107.816917419434
 20
118.214019775391
 30
0.0
 11
106.656303405762
 21
118.214019775391
 31
0.0
  0
LINE
  5
2A6
100
AcDbEntity
  8
0
  6
CONTINUOUS
 62
          15
100
AcDbLine
 10
106.656303405762
 20
118.214019775391
 30
0.0
 11
106.656303405762
 21
120.272361755371
 31
0.0
  0
LINE
  5
2A7
100
AcDbEntity
  8
0
  6
CONTINUOUS
 62
          15
100
AcDbLine
 10
106.656303405762
 20
118.904830932617
 30
0.0
 11
107.816917419434
 21
118.904830932617
 31
0.0
  0
ELLIPSE
  5
2A8
100
AcDbEntity
  8
0
  6
CONTINUOUS
 62
          15
100
AcDbEllipse
 10
107.236610412598
 20
123.069595336914
 30
0.0
 11
0.8444507718086235
 21
-0.0000000369121156
 31
0.0
210
0.0
220
0.0
230
1.0
 40
0.624739254181
 41
0.0
 42
6.2831853071795862
  0
LINE
  5
2A9
100
AcDbEntity
  8
0
  6
CONTINUOUS
 62
          15
100
AcDbLine
 10
110.909660339355
 20
122.647994995117
 30
0.0
 11
110.066413879395
 21
123.491218566895
 31
0.0
  0
LINE
  5
2AA
100
AcDbEntity
  8
0
  6
CONTINUOUS
 62
          15
100
AcDbLine
 10
109.907707214355
 20
120.272361755371
 30
0.0
 11
111.068367004395
 21
120.272361755371
 31
0.0
  0
LINE
  5
2AB
100
AcDbEntity
  8
0
  6
CONTINUOUS
 62
          15
100
AcDbLine
 10
111.068367004395
 20
120.272361755371
 30
0.0
 11
111.068367004395
 21
118.214019775391
 31
0.0
  0
LINE
  5
2AC
100
AcDbEntity
  8
0
  6
CONTINUOUS
 62
          15
100
AcDbLine
 10
111.068367004395
 20
118.214019775391
 30
0.0
 11
109.907707214355
 21
118.214019775391
 31
0.0
  0
LINE
  5
2AD
100
AcDbEntity
  8
0
  6
CONTINUOUS
 62
          15
100
AcDbLine
 10
109.907707214355
 20
118.214019775391
 30
0.0
 11
109.907707214355
 21
120.272361755371
 31
0.0
  0
LINE
  5
2AE
100
AcDbEntity
  8
0
  6
CONTINUOUS
 62
          15
100
AcDbLine
 10
109.907707214355
 20
118.904830932617
 30
0.0
 11
111.068367004395
 21
118.904830932617
 31
0.0
  0
ELLIPSE
  5
2AF
100
AcDbEntity
  8
0
  6
CONTINUOUS
 62
          15
100
AcDbEllipse
 10
110.488037109375
 20
123.069595336914
 30
0.0
 11
0.8444507718086235
 21
-0.0000000369121156
 31
0.0
210
0.0
220
0.0
230
1.0
 40
0.624739254181
 41
0.0
 42
6.2831853071795862
  0
LINE
  5
2B0
100
AcDbEntity
  8
0
  6
CONTINUOUS
 62
          15
100
AcDbLine
 10
114.359344482422
 20
122.647994995117
 30
0.0
 11
113.516120910645
 21
123.491218566895
 31
0.0
  0
LINE
  5
2B1
100
AcDbEntity
  8
0
  6
CONTINUOUS
 62
          15
100
AcDbLine
 10
113.357414245605
 20
120.272361755371
 30
0.0
 11
114.518051147461
 21
120.272361755371
 31
0.0
  0
LINE
  5
2B2
100
AcDbEntity
  8
0
  6
CONTINUOUS
 62
          15
100
AcDbLine
 10
114.518051147461
 20
120.272361755371
 30
0.0
 11
114.518051147461
 21
118.214019775391
 31
0.0
  0
LINE
  5
2B3
100
AcDbEntity
  8
0
  6
CONTINUOUS
 62
          15
100
AcDbLine
 10
114.518051147461
 20
118.214019775391
 30
0.0
 11
113.357414245605
 21
118.214019775391
 31
0.0
  0
LINE
  5
2B4
100
AcDbEntity
  8
0
  6
CONTINUOUS
 62
          15
100
AcDbLine
 10
113.357414245605
 20
118.214019775391
 30
0.0
 11
113.357414245605
 21
120.272361755371
 31
0.0
  0
LINE
  5
2B5
100
AcDbEntity
  8
0
  6
CONTINUOUS
 62
          15
100
AcDbLine
 10
113.357414245605
 20
118.904830932617
 30
0.0
 11
114.518051147461
 21
118.904830932617
 31
0.0
  0
ELLIPSE
  5
2B6
100
AcDbEntity
  8
0
  6
CONTINUOUS
 62
          15
100
AcDbEllipse
 10
113.937721252441
 20
123.069595336914
 30
0.0
 11
0.8444507718086235
 21
-0.0000000369121156
 31
0.0
210
0.0
220
0.0
230
1.0
 40
0.624739254181
 41
0.0
 42
6.2831853071795862
  0
LINE
  5
2B7
100
AcDbEntity
  8
0
  6
CONTINUOUS
 62
          15
100
AcDbLine
 10
105.718933105469
 20
121.314712524414
 30
0.0
 11
115.697227478027
 21
121.314712524414
 31
0.0
  0
LINE
  5
2B8
100
AcDbEntity
  8
0
  6
CONTINUOUS
 62
          15
100
AcDbLine
 10
77.37621307373
 20
122.665008544922
 30
0.0
 11
76.532989501953
 21
123.508232116699
 31
0.0
  0
LINE
  5
2B9
100
AcDbEntity
  8
0
  6
CONTINUOUS
 62
          15
100
AcDbLine
 10
76.374282836914
 20
120.289375305176
 30
0.0
 11
77.53491973877
 21
120.289375305176
 31
0.0
  0
LINE
  5
2BA
100
AcDbEntity
  8
0
  6
CONTINUOUS
 62
          15
100
AcDbLine
 10
77.53491973877
 20
120.289375305176
 30
0.0
 11
77.53491973877
 21
118.231033325195
 31
0.0
  0
LINE
  5
2BB
100
AcDbEntity
  8
0
  6
CONTINUOUS
 62
          15
100
AcDbLine
 10
77.53491973877
 20
118.231033325195
 30
0.0
 11
76.374282836914
 21
118.231033325195
 31
0.0
  0
LINE
  5
2BC
100
AcDbEntity
  8
0
  6
CONTINUOUS
 62
          15
100
AcDbLine
 10
76.374282836914
 20
118.231033325195
 30
0.0
 11
76.374282836914
 21
120.289375305176
 31
0.0
  0
LINE
  5
2BD
100
AcDbEntity
  8
0
  6
CONTINUOUS
 62
          15
100
AcDbLine
 10
76.374282836914
 20
118.921844482422
 30
0.0
 11
77.53491973877
 21
118.921844482422
 31
0.0
  0
ELLIPSE
  5
2BE
100
AcDbEntity
  8
0
  6
CONTINUOUS
 62
          15
100
AcDbEllipse
 10
76.95458984375
 20
123.086608886719
 30
0.0
 11
0.8444507718086235
 21
-0.0000000369121156
 31
0.0
210
0.0
220
0.0
230
1.0
 40
0.624739254181
 41
0.0
 42
6.2831853071795862
  0
LINE
  5
2BF
100
AcDbEntity
  8
0
  6
CONTINUOUS
 62
          15
100
AcDbLine
 10
80.627639770508
 20
122.665008544922
 30
0.0
 11
79.78441619873
 21
123.508232116699
 31
0.0
  0
LINE
  5
2C0
100
AcDbEntity
  8
0
  6
CONTINUOUS
 62
          15
100
AcDbLine
 10
79.625709533691
 20
120.289375305176
 30
0.0
 11
80.786346435547
 21
120.289375305176
 31
0.0
  0
LINE
  5
2C1
100
AcDbEntity
  8
0
  6
CONTINUOUS
 62
          15
100
AcDbLine
 10
80.786346435547
 20
120.289375305176
 30
0.0
 11
80.786346435547
 21
118.231033325195
 31
0.0
  0
LINE
  5
2C2
100
AcDbEntity
  8
0
  6
CONTINUOUS
 62
          15
100
AcDbLine
 10
80.786346435547
 20
118.231033325195
 30
0.0
 11
79.625709533691
 21
118.231033325195
 31
0.0
  0
LINE
  5
2C3
100
AcDbEntity
  8
0
  6
CONTINUOUS
 62
          15
100
AcDbLine
 10
79.625709533691
 20
118.231033325195
 30
0.0
 11
79.625709533691
 21
120.289375305176
 31
0.0
  0
LINE
  5
2C4
100
AcDbEntity
  8
0
  6
CONTINUOUS
 62
          15
100
AcDbLine
 10
79.625709533691
 20
118.921844482422
 30
0.0
 11
80.786346435547
 21
118.921844482422
 31
0.0
  0
ELLIPSE
  5
2C5
100
AcDbEntity
  8
0
  6
CONTINUOUS
 62
          15
100
AcDbEllipse
 10
80.206024169922
 20
123.086608886719
 30
0.0
 11
0.8444507718086235
 21
-0.0000000369121156
 31
0.0
210
0.0
220
0.0
230
1.0
 40
0.624739254181
 41
0.0
 42
6.2831853071795862
  0
LINE
  5
2C6
100
AcDbEntity
  8
0
  6
CONTINUOUS
 62
          15
100
AcDbLine
 10
84.077331542969
 20
122.665008544922
 30
0.0
 11
83.234107971191
 21
123.508232116699
 31
0.0
  0
LINE
  5
2C7
100
AcDbEntity
  8
0
  6
CONTINUOUS
 62
          15
100
AcDbLine
 10
83.075401306152
 20
120.289375305176
 30
0.0
 11
84.236038208008
 21
120.289375305176
 31
0.0
  0
LINE
  5
2C8
100
AcDbEntity
  8
0
  6
CONTINUOUS
 62
          15
100
AcDbLine
 10
84.236038208008
 20
120.289375305176
 30
0.0
 11
84.236038208008
 21
118.231033325195
 31
0.0
  0
LINE
  5
2C9
100
AcDbEntity
  8
0
  6
CONTINUOUS
 62
          15
100
AcDbLine
 10
84.236038208008
 20
118.231033325195
 30
0.0
 11
83.075401306152
 21
118.231033325195
 31
0.0
  0
LINE
  5
2CA
100
AcDbEntity
  8
0
  6
CONTINUOUS
 62
          15
100
AcDbLine
 10
83.075401306152
 20
118.231033325195
 30
0.0
 11
83.075401306152
 21
120.289375305176
 31
0.0
  0
LINE
  5
2CB
100
AcDbEntity
  8
0
  6
CONTINUOUS
 62
          15
100
AcDbLine
 10
83.075401306152
 20
118.921844482422
 30
0.0
 11
84.236038208008
 21
118.921844482422
 31
0.0
  0
ELLIPSE
  5
2CC
100
AcDbEntity
  8
0
  6
CONTINUOUS
 62
          15
100
AcDbEllipse
 10
83.655723571777
 20
123.086608886719
 30
0.0
 11
0.8444507718086235
 21
-0.0000000369121156
 31
0.0
210
0.0
220
0.0
230
1.0
 40
0.624739254181
 41
0.0
 42
6.2831853071795862
  0
LINE
  5
2CD
100
AcDbEntity
  8
0
  6
CONTINUOUS
 62
          15
100
AcDbLine
 10
26.317497253418
 20
122.633979797363
 30
0.0
 11
25.474273681641
 21
123.477203369141
 31
0.0
  0
LINE
  5
2CE
100
AcDbEntity
  8
0
  6
CONTINUOUS
 62
          15
100
AcDbLine
 10
25.315567016602
 20
120.258346557617
 30
0.0
 11
26.476203918457
 21
120.258346557617
 31
0.0
  0
LINE
  5
2CF
100
AcDbEntity
  8
0
  6
CONTINUOUS
 62
          15
100
AcDbLine
 10
26.476203918457
 20
120.258346557617
 30
0.0
 11
26.476203918457
 21
118.200004577637
 31
0.0
  0
LINE
  5
2D0
100
AcDbEntity
  8
0
  6
CONTINUOUS
 62
          15
100
AcDbLine
 10
26.476203918457
 20
118.200004577637
 30
0.0
 11
25.315567016602
 21
118.200004577637
 31
0.0
  0
LINE
  5
2D1
100
AcDbEntity
  8
0
  6
CONTINUOUS
 62
          15
100
AcDbLine
 10
25.315567016602
 20
118.200004577637
 30
0.0
 11
25.315567016602
 21
120.258346557617
 31
0.0
  0
LINE
  5
2D2
100
AcDbEntity
  8
0
  6
CONTINUOUS
 62
          15
100
AcDbLine
 10
25.315567016602
 20
118.890815734863
 30
0.0
 11
26.476203918457
 21
118.890815734863
 31
0.0
  0
ELLIPSE
  5
2D3
100
AcDbEntity
  8
0
  6
CONTINUOUS
 62
          15
100
AcDbEllipse
 10
25.895885467529
 20
123.05558013916
 30
0.0
 11
0.8444507718086235
 21
-0.0000000369121156
 31
0.0
210
0.0
220
0.0
230
1.0
 40
0.624739254181
 41
0.0
 42
6.2831853071795862
  0
LINE
  5
2D4
100
AcDbEntity
  8
0
  6
CONTINUOUS
 62
          15
100
AcDbLine
 10
29.886142730713
 20
122.633979797363
 30
0.0
 11
29.042919158936
 21
123.477203369141
 31
0.0
  0
LINE
  5
2D5
100
AcDbEntity
  8
0
  6
CONTINUOUS
 62
          15
100
AcDbLine
 10
28.884212493896
 20
120.258346557617
 30
0.0
 11
30.044849395752
 21
120.258346557617
 31
0.0
  0
LINE
  5
2D6
100
AcDbEntity
  8
0
  6
CONTINUOUS
 62
          15
100
AcDbLine
 10
30.044849395752
 20
120.258346557617
 30
0.0
 11
30.044849395752
 21
118.200004577637
 31
0.0
  0
LINE
  5
2D7
100
AcDbEntity
  8
0
  6
CONTINUOUS
 62
          15
100
AcDbLine
 10
30.044849395752
 20
118.200004577637
 30
0.0
 11
28.884212493896
 21
118.200004577637
 31
0.0
  0
LINE
  5
2D8
100
AcDbEntity
  8
0
  6
CONTINUOUS
 62
          15
100
AcDbLine
 10
28.884212493896
 20
118.200004577637
 30
0.0
 11
28.884212493896
 21
120.258346557617
 31
0.0
  0
LINE
  5
2D9
100
AcDbEntity
  8
0
  6
CONTINUOUS
 62
          15
100
AcDbLine
 10
28.884212493896
 20
118.890815734863
 30
0.0
 11
30.044849395752
 21
118.890815734863
 31
0.0
  0
ELLIPSE
  5
2DA
100
AcDbEntity
  8
0
  6
CONTINUOUS
 62
          15
100
AcDbEllipse
 10
29.464530944824
 20
123.05558013916
 30
0.0
 11
0.8444507718086235
 21
-0.0000000369121156
 31
0.0
210
0.0
220
0.0
230
1.0
 40
0.624739254181
 41
0.0
 42
6.2831853071795862
  0
LINE
  5
2DB
100
AcDbEntity
  8
0
  6
CONTINUOUS
 62
          15
100
AcDbLine
 10
33.177234649658
 20
122.633979797363
 30
0.0
 11
32.334011077881
 21
123.477203369141
 31
0.0
  0
LINE
  5
2DC
100
AcDbEntity
  8
0
  6
CONTINUOUS
 62
          15
100
AcDbLine
 10
32.175304412842
 20
120.258346557617
 30
0.0
 11
33.335941314697
 21
120.258346557617
 31
0.0
  0
LINE
  5
2DD
100
AcDbEntity
  8
0
  6
CONTINUOUS
 62
          15
100
AcDbLine
 10
33.335941314697
 20
120.258346557617
 30
0.0
 11
33.335941314697
 21
118.200004577637
 31
0.0
  0
LINE
  5
2DE
100
AcDbEntity
  8
0
  6
CONTINUOUS
 62
          15
100
AcDbLine
 10
33.335941314697
 20
118.200004577637
 30
0.0
 11
32.175304412842
 21
118.200004577637
 31
0.0
  0
LINE
  5
2DF
100
AcDbEntity
  8
0
  6
CONTINUOUS
 62
          15
100
AcDbLine
 10
32.175304412842
 20
118.200004577637
 30
0.0
 11
32.175304412842
 21
120.258346557617
 31
0.0
  0
LINE
  5
2E0
100
AcDbEntity
  8
0
  6
CONTINUOUS
 62
          15
100
AcDbLine
 10
32.175304412842
 20
118.890815734863
 30
0.0
 11
33.335941314697
 21
118.890815734863
 31
0.0
  0
ELLIPSE
  5
2E1
100
AcDbEntity
  8
0
  6
CONTINUOUS
 62
          15
100
AcDbEllipse
 10
32.755611419678
 20
123.05558013916
 30
0.0
 11
0.8444507718086235
 21
-0.0000000369121156
 31
0.0
210
0.0
220
0.0
230
1.0
 40
0.624739254181
 41
0.0
 42
6.2831853071795862
  0
LINE
  5
2E2
100
AcDbEntity
  8
0
  6
CONTINUOUS
 62
          15
100
AcDbLine
 10
85.350646972656
 20
113.526596069336
 30
0.0
 11
24.48588180542
 21
113.526596069336
 31
0.0
  0
LINE
  5
2E3
100
AcDbEntity
  8
0
  6
CONTINUOUS
 62
          15
100
AcDbLine
 10
115.697227478027
 20
113.526596069336
 30
0.0
 11
85.350646972656
 21
113.526596069336
 31
0.0
  0
TEXT
  5
2E4
100
AcDbEntity
  8
0
  6
CONTINUOUS
 62
          15
100
AcDbText
 10
25.566020965576
 20
114.500294178724
 30
0.0
 40
1.600000023842
  1
C
  7
SIMPLEX
100
AcDbText
  0
TEXT
  5
2E5
100
AcDbEntity
  8
0
  6
CONTINUOUS
 62
          15
100
AcDbText
 10
28.772151947021
 20
114.500294178724
 30
0.0
 40
1.600000023842
  1
L
  7
SIMPLEX
100
AcDbText
  0
TEXT
  5
2E6
100
AcDbEntity
  8
0
  6
CONTINUOUS
 62
          15
100
AcDbText
 10
32.201122283936
 20
114.500294178724
 30
0.0
 40
1.600000023842
  1
H
  7
SIMPLEX
100
AcDbText
  0
TEXT
  5
2E7
100
AcDbEntity
  8
0
  6
CONTINUOUS
 62
          15
100
AcDbText
 10
35.85306930542
 20
114.500294178724
 30
0.0
 40
1.600000023842
  1
C
  7
SIMPLEX
100
AcDbText
  0
TEXT
  5
2E8
100
AcDbEntity
  8
0
  6
CONTINUOUS
 62
          15
100
AcDbText
 10
39.487804412842
 20
114.500294178724
 30
0.0
 40
1.600000023842
  1
L
  7
SIMPLEX
100
AcDbText
  0
TEXT
  5
2E9
100
AcDbEntity
  8
0
  6
CONTINUOUS
 62
          15
100
AcDbText
 10
42.711009979248
 20
114.500294178724
 30
0.0
 40
1.600000023842
  1
H
  7
SIMPLEX
100
AcDbText
  0
TEXT
  5
2EA
100
AcDbEntity
  8
0
  6
CONTINUOUS
 62
          15
100
AcDbText
 10
66.0625
 20
114.500294178724
 30
0.0
 40
1.600000023842
  1
C
  7
SIMPLEX
100
AcDbText
  0
TEXT
  5
2EB
100
AcDbEntity
  8
0
  6
CONTINUOUS
 62
          15
100
AcDbText
 10
69.268630981445
 20
114.500294178724
 30
0.0
 40
1.600000023842
  1
L
  7
SIMPLEX
100
AcDbText
  0
TEXT
  5
2EC
100
AcDbEntity
  8
0
  6
CONTINUOUS
 62
          15
100
AcDbText
 10
72.697601318359
 20
114.500294178724
 30
0.0
 40
1.600000023842
  1
H
  7
SIMPLEX
100
AcDbText
  0
TEXT
  5
2ED
100
AcDbEntity
  8
0
  6
CONTINUOUS
 62
          15
100
AcDbText
 10
76.349548339844
 20
114.500294178724
 30
0.0
 40
1.600000023842
  1
C
  7
SIMPLEX
100
AcDbText
  0
TEXT
  5
2EE
100
AcDbEntity
  8
0
  6
CONTINUOUS
 62
          15
100
AcDbText
 10
83.207489013672
 20
114.500294178724
 30
0.0
 40
1.600000023842
  1
H
  7
SIMPLEX
100
AcDbText
  0
TEXT
  5
2EF
100
AcDbEntity
  8
0
  6
CONTINUOUS
 62
          15
100
AcDbText
 10
45.934307098389
 20
114.500294178724
 30
0.0
 40
1.600000023842
  1
C
  7
SIMPLEX
100
AcDbText
  0
TEXT
  5
2F0
100
AcDbEntity
  8
0
  6
CONTINUOUS
 62
          15
100
AcDbText
 10
49.140438079834
 20
114.500294178724
 30
0.0
 40
1.600000023842
  1
L
  7
SIMPLEX
100
AcDbText
  0
TEXT
  5
2F1
100
AcDbEntity
  8
0
  6
CONTINUOUS
 62
          15
100
AcDbText
 10
52.569408416748
 20
114.500294178724
 30
0.0
 40
1.600000023842
  1
H
  7
SIMPLEX
100
AcDbText
  0
TEXT
  5
2F2
100
AcDbEntity
  8
0
  6
CONTINUOUS
 62
          15
100
AcDbText
 10
56.221355438232
 20
114.500294178724
 30
0.0
 40
1.600000023842
  1
C
  7
SIMPLEX
100
AcDbText
  0
TEXT
  5
2F3
100
AcDbEntity
  8
0
  6
CONTINUOUS
 62
          15
100
AcDbText
 10
59.856090545654
 20
114.500294178724
 30
0.0
 40
1.600000023842
  1
L
  7
SIMPLEX
100
AcDbText
  0
TEXT
  5
2F4
100
AcDbEntity
  8
0
  6
CONTINUOUS
 62
          15
100
AcDbText
 10
63.079296112061
 20
114.500294178724
 30
0.0
 40
1.600000023842
  1
H
  7
SIMPLEX
100
AcDbText
  0
TEXT
  5
2F5
100
AcDbEntity
  8
0
  6
CONTINUOUS
 62
          15
100
AcDbText
 10
79.898384094238
 20
114.500294178724
 30
0.0
 40
1.600000023842
  1
L
  7
SIMPLEX
100
AcDbText
  0
TEXT
  5
2F6
100
AcDbEntity
  8
0
  6
CONTINUOUS
 62
          15
100
AcDbText
 10
88.984703063965
 20
114.392757862806
 30
0.0
 40
1.600000023842
  1
SD
 41
0.906249979045
  7
SIMPLEX
100
AcDbText
  0
TEXT
  5
2F7
100
AcDbEntity
  8
0
  6
CONTINUOUS
 62
          15
100
AcDbText
 10
93.308578491211
 20
114.400577992201
 30
0.0
 40
1.600000023842
  1
M
  7
SIMPLEX
100
AcDbText
  0
TEXT
  5
2F8
100
AcDbEntity
  8
0
  6
CONTINUOUS
 62
          15
100
AcDbText
 10
96.281730651855
 20
114.350475758314
 30
0.0
 40
1.600000023842
  1
-
  7
SIMPLEX
100
AcDbText
  0
TEXT
  5
2F9
100
AcDbEntity
  8
0
  6
CONTINUOUS
 62
          15
100
AcDbText
 10
99.96021270752
 20
114.334835499525
 30
0.0
 40
1.600000023842
  1
+
  7
SIMPLEX
100
AcDbText
  0
TEXT
  5
2FA
100
AcDbEntity
  8
0
  6
CONTINUOUS
 62
          15
100
AcDbText
 10
103.478439331055
 20
114.369770497084
 30
0.0
 40
1.600000023842
  1
A
  7
SIMPLEX
100
AcDbText
  0
TEXT
  5
2FB
100
AcDbEntity
  8
0
  6
CONTINUOUS
 62
          15
100
AcDbText
 10
113.493362426758
 20
114.369770497084
 30
0.0
 40
1.600000023842
  1
C
  7
SIMPLEX
100
AcDbText
  0
TEXT
  5
2FC
100
AcDbEntity
  8
0
  6
CONTINUOUS
 62
          15
100
AcDbText
 10
106.747200012207
 20
114.369770497084
 30
0.0
 40
1.600000023842
  1
O
  7
SIMPLEX
100
AcDbText
  0
TEXT
  5
2FD
100
AcDbEntity
  8
0
  6
CONTINUOUS
 62
          15
100
AcDbText
 10
109.358039855957
 20
114.392757862806
 30
0.0
 40
1.600000023842
  1
CM
 41
0.906249979045
  7
SIMPLEX
100
AcDbText
  0
TEXT
  5
2FE
100
AcDbEntity
  8
0
  6
CONTINUOUS
 62
          15
100
AcDbText
 10
37.08166885376
 20
110.373836964369
 30
0.0
 40
1.600000023842
  1
TO TERMINATION BOARDS
  7
SIMPLEX
100
AcDbText
  0
TEXT
  5
2FF
100
AcDbEntity
  8
0
  6
CONTINUOUS
 62
          15
100
AcDbText
 10
87.200355529785
 20
110.579578846693
 30
0.0
 40
1.600000023842
  1
SD
  7
SIMPLEX
100
AcDbText
  0
TEXT
  5
300
100
AcDbEntity
  8
0
  6
CONTINUOUS
 62
          15
100
AcDbText
 10
94.693603515625
 20
110.579578846693
 30
0.0
 40
1.600000023842
  1
REMOTE
  7
SIMPLEX
100
AcDbText
  0
TEXT
  5
301
100
AcDbEntity
  8
0
  6
CONTINUOUS
 62
          15
100
AcDbText
 10
85.740730285645
 20
114.369289845228
 30
0.0
 40
1.600000023842
  1
CM
 41
0.906249979045
  7
SIMPLEX
100
AcDbText
  0
LINE
  5
302
100
AcDbEntity
  8
0
  6
CONTINUOUS
 62
          15
100
AcDbLine
 10
69.556686401367
 20
45.825584411621
 30
0.0
 11
82.806686401367
 21
45.825584411621
 31
0.0
  0
CIRCLE
  5
303
100
AcDbEntity
  8
0
  6
CONTINUOUS
 62
          15
100
AcDbCircle
 10
70.556686401367
 20
47.159973144531
 30
0.0
 40
0.600000023842
  0
LINE
  5
304
100
AcDbEntity
  8
0
  6
CONTINUOUS
 62
          15
100
AcDbLine
 10
70.980949401855
 20
46.735710144043
 30
0.0
 11
70.132423400879
 21
47.58423614502
 31
0.0
  0
CIRCLE
  5
305
100
AcDbEntity
  8
0
  6
CONTINUOUS
 62
          15
100
AcDbCircle
 10
72.806686401367
 20
47.159973144531
 30
0.0
 40
0.600000023842
  0
LINE
  5
306
100
AcDbEntity
  8
0
  6
CONTINUOUS
 62
          15
100
AcDbLine
 10
73.230949401855
 20
46.735710144043
 30
0.0
 11
72.382423400879
 21
47.58423614502
 31
0.0
  0
CIRCLE
  5
307
100
AcDbEntity
  8
0
  6
CONTINUOUS
 62
          15
100
AcDbCircle
 10
75.056686401367
 20
47.159973144531
 30
0.0
 40
0.600000023842
  0
LINE
  5
308
100
AcDbEntity
  8
0
  6
CONTINUOUS
 62
          15
100
AcDbLine
 10
75.480949401855
 20
46.735710144043
 30
0.0
 11
74.632423400879
 21
47.58423614502
 31
0.0
  0
CIRCLE
  5
309
100
AcDbEntity
  8
0
  6
CONTINUOUS
 62
          15
100
AcDbCircle
 10
77.306686401367
 20
47.159973144531
 30
0.0
 40
0.600000023842
  0
LINE
  5
30A
100
AcDbEntity
  8
0
  6
CONTINUOUS
 62
          15
100
AcDbLine
 10
77.730949401855
 20
46.735710144043
 30
0.0
 11
76.882423400879
 21
47.58423614502
 31
0.0
  0
CIRCLE
  5
30B
100
AcDbEntity
  8
0
  6
CONTINUOUS
 62
          15
100
AcDbCircle
 10
79.556686401367
 20
47.159973144531
 30
0.0
 40
0.600000023842
  0
LINE
  5
30C
100
AcDbEntity
  8
0
  6
CONTINUOUS
 62
          15
100
AcDbLine
 10
79.980949401855
 20
46.735710144043
 30
0.0
 11
79.132423400879
 21
47.58423614502
 31
0.0
  0
CIRCLE
  5
30D
100
AcDbEntity
  8
0
  6
CONTINUOUS
 62
          15
100
AcDbCircle
 10
81.806686401367
 20
47.159973144531
 30
0.0
 40
0.600000023842
  0
LINE
  5
30E
100
AcDbEntity
  8
0
  6
CONTINUOUS
 62
          15
100
AcDbLine
 10
82.230949401855
 20
46.735710144043
 30
0.0
 11
81.382423400879
 21
47.58423614502
 31
0.0
  0
LINE
  5
30F
100
AcDbEntity
  8
0
  6
CONTINUOUS
 62
          15
100
AcDbLine
 10
69.556686401367
 20
48.659973144531
 30
0.0
 11
82.806686401367
 21
48.659973144531
 31
0.0
  0
LINE
  5
310
100
AcDbEntity
  8
0
  6
CONTINUOUS
 62
          15
100
AcDbLine
 10
69.556686401367
 20
40.014579772949
 30
0.0
 11
82.806686401367
 21
40.014579772949
 31
0.0
  0
LINE
  5
311
100
AcDbEntity
  8
0
  6
CONTINUOUS
 62
          15
100
AcDbLine
 10
69.556686401367
 20
37.014579772949
 30
0.0
 11
82.806686401367
 21
37.014579772949
 31
0.0
  0
CIRCLE
  5
312
100
AcDbEntity
  8
0
  6
CONTINUOUS
 62
          15
100
AcDbCircle
 10
70.556686401367
 20
38.431774139404
 30
0.0
 40
0.600000023842
  0
LINE
  5
313
100
AcDbEntity
  8
0
  6
CONTINUOUS
 62
          15
100
AcDbLine
 10
70.980949401855
 20
38.007511138916
 30
0.0
 11
70.132423400879
 21
38.856037139893
 31
0.0
  0
CIRCLE
  5
314
100
AcDbEntity
  8
0
  6
CONTINUOUS
 62
          15
100
AcDbCircle
 10
72.806686401367
 20
38.431774139404
 30
0.0
 40
0.600000023842
  0
LINE
  5
315
100
AcDbEntity
  8
0
  6
CONTINUOUS
 62
          15
100
AcDbLine
 10
73.230949401855
 20
38.007511138916
 30
0.0
 11
72.382423400879
 21
38.856037139893
 31
0.0
  0
CIRCLE
  5
316
100
AcDbEntity
  8
0
  6
CONTINUOUS
 62
          15
100
AcDbCircle
 10
75.056686401367
 20
38.431774139404
 30
0.0
 40
0.600000023842
  0
LINE
  5
317
100
AcDbEntity
  8
0
  6
CONTINUOUS
 62
          15
100
AcDbLine
 10
75.480949401855
 20
38.007511138916
 30
0.0
 11
74.632423400879
 21
38.856037139893
 31
0.0
  0
CIRCLE
  5
318
100
AcDbEntity
  8
0
  6
CONTINUOUS
 62
          15
100
AcDbCircle
 10
77.306686401367
 20
38.431774139404
 30
0.0
 40
0.600000023842
  0
LINE
  5
319
100
AcDbEntity
  8
0
  6
CONTINUOUS
 62
          15
100
AcDbLine
 10
77.730949401855
 20
38.007511138916
 30
0.0
 11
76.882423400879
 21
38.856037139893
 31
0.0
  0
CIRCLE
  5
31A
100
AcDbEntity
  8
0
  6
CONTINUOUS
 62
          15
100
AcDbCircle
 10
79.556686401367
 20
38.431774139404
 30
0.0
 40
0.600000023842
  0
LINE
  5
31B
100
AcDbEntity
  8
0
  6
CONTINUOUS
 62
          15
100
AcDbLine
 10
79.980949401855
 20
38.007511138916
 30
0.0
 11
79.132423400879
 21
38.856037139893
 31
0.0
  0
CIRCLE
  5
31C
100
AcDbEntity
  8
0
  6
CONTINUOUS
 62
          15
100
AcDbCircle
 10
81.806686401367
 20
38.431774139404
 30
0.0
 40
0.600000023842
  0
LINE
  5
31D
100
AcDbEntity
  8
0
  6
CONTINUOUS
 62
          15
100
AcDbLine
 10
82.230949401855
 20
38.007511138916
 30
0.0
 11
81.382423400879
 21
38.856037139893
 31
0.0
  0
TEXT
  5
31E
100
AcDbEntity
  8
0
  6
CONTINUOUS
 62
          15
100
AcDbText
 10
71.26838684082
 20
49.030090928078
 30
0.0
 40
1.299999952316
  1
C
 41
0.961538496807
  7
ROMANT
100
AcDbText
  0
TEXT
  5
31F
100
AcDbEntity
  8
0
  6
CONTINUOUS
 62
          15
100
AcDbText
 10
74.697731018066
 20
49.030090928078
 30
0.0
 40
1.299999952316
  1
1
 41
0.961538496807
  7
ROMANT
100
AcDbText
  0
TEXT
  5
320
100
AcDbEntity
  8
0
  6
CONTINUOUS
 62
          15
100
AcDbText
 10
76.923156738281
 20
49.030090928078
 30
0.0
 40
1.299999952316
  1
2
 41
0.961538496807
  7
ROMANT
100
AcDbText
  0
TEXT
  5
321
100
AcDbEntity
  8
0
  6
CONTINUOUS
 62
          15
100
AcDbText
 10
79.185066223145
 20
49.030090928078
 30
0.0
 40
1.299999952316
  1
3
 41
0.961538496807
  7
ROMANT
100
AcDbText
  0
TEXT
  5
322
100
AcDbEntity
  8
0
  6
CONTINUOUS
 62
          15
100
AcDbText
 10
71.26838684082
 20
35.235245347023
 30
0.0
 40
1.299999952316
  1
C
 41
0.961538496807
  7
ROMANT
100
AcDbText
  0
TEXT
  5
323
100
AcDbEntity
  8
0
  6
CONTINUOUS
 62
          15
100
AcDbText
 10
74.697731018066
 20
35.235245347023
 30
0.0
 40
1.299999952316
  1
1
 41
0.961538496807
  7
ROMANT
100
AcDbText
  0
TEXT
  5
324
100
AcDbEntity
  8
0
  6
CONTINUOUS
 62
          15
100
AcDbText
 10
76.923156738281
 20
35.235245347023
 30
0.0
 40
1.299999952316
  1
2
 41
0.961538496807
  7
ROMANT
100
AcDbText
  0
TEXT
  5
325
100
AcDbEntity
  8
0
  6
CONTINUOUS
 62
          15
100
AcDbText
 10
79.185066223145
 20
35.235245347023
 30
0.0
 40
1.299999952316
  1
3
 41
0.961538496807
  7
ROMANT
100
AcDbText
  0
TEXT
  5
326
100
AcDbEntity
  8
0
  6
CONTINUOUS
 62
          15
100
AcDbText
 10
81.374015808105
 20
49.030090928078
 30
0.0
 40
1.299999952316
  1
4
 41
0.961538496807
  7
ROMANT
100
AcDbText
  0
TEXT
  5
327
100
AcDbEntity
  8
0
  6
CONTINUOUS
 62
          15
100
AcDbText
 10
81.374015808105
 20
35.235245347023
 30
0.0
 40
1.299999952316
  1
4
 41
0.961538496807
  7
ROMANT
100
AcDbText
  0
LINE
  5
328
100
AcDbEntity
  8
0
  6
CONTINUOUS
 62
          15
100
AcDbLine
 10
124.836059570313
 20
45.814331054688
 30
0.0
 11
124.836059570313
 21
53.211418151855
 31
0.0
  0
LINE
  5
329
100
AcDbEntity
  8
0
  6
CONTINUOUS
 62
          15
100
AcDbLine
 10
138.086059570313
 20
45.814331054688
 30
0.0
 11
138.086059570313
 21
53.211418151855
 31
0.0
  0
LINE
  5
32A
100
AcDbEntity
  8
0
  6
CONTINUOUS
 62
          15
100
AcDbLine
 10
136.044616699219
 20
48.648719787598
 30
0.0
 11
136.044616699219
 21
50.715496063232
 31
0.0
  0
LINE
  5
32B
100
AcDbEntity
  8
0
  6
CONTINUOUS
 62
          15
100
AcDbLine
 10
133.741989135742
 20
48.648719787598
 30
0.0
 11
133.741989135742
 21
50.715496063232
 31
0.0
  0
LINE
  5
32C
100
AcDbEntity
  8
0
  6
CONTINUOUS
 62
          15
100
AcDbLine
 10
131.529678344727
 20
48.648719787598
 30
0.0
 11
131.529678344727
 21
50.715496063232
 31
0.0
  0
LINE
  5
32D
100
AcDbEntity
  8
0
  6
CONTINUOUS
 62
          15
100
AcDbLine
 10
129.272201538086
 20
48.648719787598
 30
0.0
 11
129.272201538086
 21
50.715496063232
 31
0.0
  0
LINE
  5
32E
100
AcDbEntity
  8
0
  6
CONTINUOUS
 62
          15
100
AcDbLine
 10
124.836059570313
 20
50.715496063232
 30
0.0
 11
138.031188964844
 21
50.715496063232
 31
0.0
  0
TEXT
  5
32F
100
AcDbEntity
  8
0
  6
CONTINUOUS
 62
          15
100
AcDbText
 10
125.89134979248
 20
51.241534590721
 30
0.0
 40
1.200000047684
  1
TO ALARM
 41
1.249999950329
  7
ROMANT
100
AcDbText
  0
LINE
  5
330
100
AcDbEntity
  8
0
  6
CONTINUOUS
 62
          15
100
AcDbLine
 10
124.836059570313
 20
45.814331054688
 30
0.0
 11
138.086059570313
 21
45.814331054688
 31
0.0
  0
CIRCLE
  5
331
100
AcDbEntity
  8
0
  6
CONTINUOUS
 62
          15
100
AcDbCircle
 10
125.836059570313
 20
47.148719787598
 30
0.0
 40
0.600000023842
  0
LINE
  5
332
100
AcDbEntity
  8
0
  6
CONTINUOUS
 62
          15
100
AcDbLine
 10
126.260322570801
 20
46.724456787109
 30
0.0
 11
125.411796569824
 21
47.572982788086
 31
0.0
  0
CIRCLE
  5
333
100
AcDbEntity
  8
0
  6
CONTINUOUS
 62
          15
100
AcDbCircle
 10
128.086059570313
 20
47.148719787598
 30
0.0
 40
0.600000023842
  0
LINE
  5
334
100
AcDbEntity
  8
0
  6
CONTINUOUS
 62
          15
100
AcDbLine
 10
128.510314941406
 20
46.724456787109
 30
0.0
 11
127.661796569824
 21
47.572982788086
 31
0.0
  0
CIRCLE
  5
335
100
AcDbEntity
  8
0
  6
CONTINUOUS
 62
          15
100
AcDbCircle
 10
130.336059570313
 20
47.148719787598
 30
0.0
 40
0.600000023842
  0
LINE
  5
336
100
AcDbEntity
  8
0
  6
CONTINUOUS
 62
          15
100
AcDbLine
 10
130.760314941406
 20
46.724456787109
 30
0.0
 11
129.91178894043
 21
47.572982788086
 31
0.0
  0
CIRCLE
  5
337
100
AcDbEntity
  8
0
  6
CONTINUOUS
 62
          15
100
AcDbCircle
 10
132.586059570313
 20
47.148719787598
 30
0.0
 40
0.600000023842
  0
LINE
  5
338
100
AcDbEntity
  8
0
  6
CONTINUOUS
 62
          15
100
AcDbLine
 10
133.010314941406
 20
46.724456787109
 30
0.0
 11
132.16178894043
 21
47.572982788086
 31
0.0
  0
CIRCLE
  5
339
100
AcDbEntity
  8
0
  6
CONTINUOUS
 62
          15
100
AcDbCircle
 10
134.836059570313
 20
47.148719787598
 30
0.0
 40
0.600000023842
  0
LINE
  5
33A
100
AcDbEntity
  8
0
  6
CONTINUOUS
 62
          15
100
AcDbLine
 10
135.260314941406
 20
46.724456787109
 30
0.0
 11
134.41178894043
 21
47.572982788086
 31
0.0
  0
CIRCLE
  5
33B
100
AcDbEntity
  8
0
  6
CONTINUOUS
 62
          15
100
AcDbCircle
 10
137.086059570313
 20
47.148719787598
 30
0.0
 40
0.600000023842
  0
LINE
  5
33C
100
AcDbEntity
  8
0
  6
CONTINUOUS
 62
          15
100
AcDbLine
 10
137.510314941406
 20
46.724456787109
 30
0.0
 11
136.66178894043
 21
47.572982788086
 31
0.0
  0
LINE
  5
33D
100
AcDbEntity
  8
0
  6
CONTINUOUS
 62
          15
100
AcDbLine
 10
124.836059570313
 20
48.648719787598
 30
0.0
 11
138.086059570313
 21
48.648719787598
 31
0.0
  0
TEXT
  5
33E
100
AcDbEntity
  8
0
  6
CONTINUOUS
 62
          15
100
AcDbText
 10
126.547760009766
 20
49.018837571144
 30
0.0
 40
1.299999952316
  1
C
 41
0.961538496807
  7
ROMANT
100
AcDbText
  0
TEXT
  5
33F
100
AcDbEntity
  8
0
  6
CONTINUOUS
 62
          15
100
AcDbText
 10
129.977096557617
 20
49.018837571144
 30
0.0
 40
1.299999952316
  1
1
 41
0.961538496807
  7
ROMANT
100
AcDbText
  0
TEXT
  5
340
100
AcDbEntity
  8
0
  6
CONTINUOUS
 62
          15
100
AcDbText
 10
132.202529907227
 20
49.018837571144
 30
0.0
 40
1.299999952316
  1
2
 41
0.961538496807
  7
ROMANT
100
AcDbText
  0
TEXT
  5
341
100
AcDbEntity
  8
0
  6
CONTINUOUS
 62
          15
100
AcDbText
 10
134.464431762695
 20
49.018837571144
 30
0.0
 40
1.299999952316
  1
3
 41
0.961538496807
  7
ROMANT
100
AcDbText
  0
TEXT
  5
342
100
AcDbEntity
  8
0
  6
CONTINUOUS
 62
          15
100
AcDbText
 10
136.653381347656
 20
49.018837571144
 30
0.0
 40
1.299999952316
  1
4
 41
0.961538496807
  7
ROMANT
100
AcDbText
  0
LINE
  5
343
100
AcDbEntity
  8
0
  6
CONTINUOUS
 62
          15
100
AcDbLine
 10
182.92333984375
 20
45.814331054688
 30
0.0
 11
182.92333984375
 21
53.211418151855
 31
0.0
  0
LINE
  5
344
100
AcDbEntity
  8
0
  6
CONTINUOUS
 62
          15
100
AcDbLine
 10
196.17333984375
 20
45.814331054688
 30
0.0
 11
196.17333984375
 21
53.211418151855
 31
0.0
  0
LINE
  5
345
100
AcDbEntity
  8
0
  6
CONTINUOUS
 62
          15
100
AcDbLine
 10
194.131896972656
 20
48.648719787598
 30
0.0
 11
194.131896972656
 21
50.715496063232
 31
0.0
  0
LINE
  5
346
100
AcDbEntity
  8
0
  6
CONTINUOUS
 62
          15
100
AcDbLine
 10
191.82926940918
 20
48.648719787598
 30
0.0
 11
191.82926940918
 21
50.715496063232
 31
0.0
  0
LINE
  5
347
100
AcDbEntity
  8
0
  6
CONTINUOUS
 62
          15
100
AcDbLine
 10
189.616958618164
 20
48.648719787598
 30
0.0
 11
189.616958618164
 21
50.715496063232
 31
0.0
  0
LINE
  5
348
100
AcDbEntity
  8
0
  6
CONTINUOUS
 62
          15
100
AcDbLine
 10
187.359481811523
 20
48.648719787598
 30
0.0
 11
187.359481811523
 21
50.715496063232
 31
0.0
  0
LINE
  5
349
100
AcDbEntity
  8
0
  6
CONTINUOUS
 62
          15
100
AcDbLine
 10
182.92333984375
 20
50.715496063232
 30
0.0
 11
196.118469238281
 21
50.715496063232
 31
0.0
  0
TEXT
  5
34A
100
AcDbEntity
  8
0
  6
CONTINUOUS
 62
          15
100
AcDbText
 10
183.978637695313
 20
51.241534590721
 30
0.0
 40
1.200000047684
  1
TO ALARM
 41
1.249999950329
  7
ROMANT
100
AcDbText
  0
LINE
  5
34B
100
AcDbEntity
  8
0
  6
CONTINUOUS
 62
          15
100
AcDbLine
 10
182.92333984375
 20
45.814331054688
 30
0.0
 11
196.17333984375
 21
45.814331054688
 31
0.0
  0
CIRCLE
  5
34C
100
AcDbEntity
  8
0
  6
CONTINUOUS
 62
          15
100
AcDbCircle
 10
183.92333984375
 20
47.148719787598
 30
0.0
 40
0.600000023842
  0
LINE
  5
34D
100
AcDbEntity
  8
0
  6
CONTINUOUS
 62
          15
100
AcDbLine
 10
184.347610473633
 20
46.724456787109
 30
0.0
 11
183.499084472656
 21
47.572982788086
 31
0.0
  0
CIRCLE
  5
34E
100
AcDbEntity
  8
0
  6
CONTINUOUS
 62
          15
100
AcDbCircle
 10
186.17333984375
 20
47.148719787598
 30
0.0
 40
0.600000023842
  0
LINE
  5
34F
100
AcDbEntity
  8
0
  6
CONTINUOUS
 62
          15
100
AcDbLine
 10
186.597595214844
 20
46.724456787109
 30
0.0
 11
185.749084472656
 21
47.572982788086
 31
0.0
  0
CIRCLE
  5
350
100
AcDbEntity
  8
0
  6
CONTINUOUS
 62
          15
100
AcDbCircle
 10
188.42333984375
 20
47.148719787598
 30
0.0
 40
0.600000023842
  0
LINE
  5
351
100
AcDbEntity
  8
0
  6
CONTINUOUS
 62
          15
100
AcDbLine
 10
188.847595214844
 20
46.724456787109
 30
0.0
 11
187.999069213867
 21
47.572982788086
 31
0.0
  0
CIRCLE
  5
352
100
AcDbEntity
  8
0
  6
CONTINUOUS
 62
          15
100
AcDbCircle
 10
190.67333984375
 20
47.148719787598
 30
0.0
 40
0.600000023842
  0
LINE
  5
353
100
AcDbEntity
  8
0
  6
CONTINUOUS
 62
          15
100
AcDbLine
 10
191.097595214844
 20
46.724456787109
 30
0.0
 11
190.249069213867
 21
47.572982788086
 31
0.0
  0
CIRCLE
  5
354
100
AcDbEntity
  8
0
  6
CONTINUOUS
 62
          15
100
AcDbCircle
 10
192.92333984375
 20
47.148719787598
 30
0.0
 40
0.600000023842
  0
LINE
  5
355
100
AcDbEntity
  8
0
  6
CONTINUOUS
 62
          15
100
AcDbLine
 10
193.347595214844
 20
46.724456787109
 30
0.0
 11
192.499069213867
 21
47.572982788086
 31
0.0
  0
CIRCLE
  5
356
100
AcDbEntity
  8
0
  6
CONTINUOUS
 62
          15
100
AcDbCircle
 10
195.17333984375
 20
47.148719787598
 30
0.0
 40
0.600000023842
  0
LINE
  5
357
100
AcDbEntity
  8
0
  6
CONTINUOUS
 62
          15
100
AcDbLine
 10
195.597595214844
 20
46.724456787109
 30
0.0
 11
194.749069213867
 21
47.572982788086
 31
0.0
  0
LINE
  5
358
100
AcDbEntity
  8
0
  6
CONTINUOUS
 62
          15
100
AcDbLine
 10
182.92333984375
 20
48.648719787598
 30
0.0
 11
196.17333984375
 21
48.648719787598
 31
0.0
  0
TEXT
  5
359
100
AcDbEntity
  8
0
  6
CONTINUOUS
 62
          15
100
AcDbText
 10
184.635040283203
 20
49.018837571144
 30
0.0
 40
1.299999952316
  1
C
 41
0.961538496807
  7
ROMANT
100
AcDbText
  0
TEXT
  5
35A
100
AcDbEntity
  8
0
  6
CONTINUOUS
 62
          15
100
AcDbText
 10
188.064376831055
 20
49.018837571144
 30
0.0
 40
1.299999952316
  1
1
 41
0.961538496807
  7
ROMANT
100
AcDbText
  0
TEXT
  5
35B
100
AcDbEntity
  8
0
  6
CONTINUOUS
 62
          15
100
AcDbText
 10
190.289810180664
 20
49.018837571144
 30
0.0
 40
1.299999952316
  1
2
 41
0.961538496807
  7
ROMANT
100
AcDbText
  0
TEXT
  5
35C
100
AcDbEntity
  8
0
  6
CONTINUOUS
 62
          15
100
AcDbText
 10
192.551712036133
 20
49.018837571144
 30
0.0
 40
1.299999952316
  1
3
 41
0.961538496807
  7
ROMANT
100
AcDbText
  0
TEXT
  5
35D
100
AcDbEntity
  8
0
  6
CONTINUOUS
 62
          15
100
AcDbText
 10
194.740661621094
 20
49.018837571144
 30
0.0
 40
1.299999952316
  1
4
 41
0.961538496807
  7
ROMANT
100
AcDbText
  0
LINE
  5
35E
100
AcDbEntity
  8
0
  6
CONTINUOUS
 62
          15
100
AcDbLine
 10
182.948745727539
 20
32.345314025879
 30
0.0
 11
182.948745727539
 21
40.125438690186
 31
0.0
  0
LINE
  5
35F
100
AcDbEntity
  8
0
  6
CONTINUOUS
 62
          15
100
AcDbLine
 10
196.198745727539
 20
32.345314025879
 30
0.0
 11
196.198745727539
 21
40.125438690186
 31
0.0
  0
LINE
  5
360
100
AcDbEntity
  8
0
  6
CONTINUOUS
 62
          15
100
AcDbLine
 10
182.948745727539
 20
34.915740966797
 30
0.0
 11
196.143890380859
 21
34.915740966797
 31
0.0
  0
LINE
  5
361
100
AcDbEntity
  8
0
  6
CONTINUOUS
 62
          15
100
AcDbLine
 10
194.157302856445
 20
34.915740966797
 30
0.0
 11
194.157302856445
 21
37.125438690186
 31
0.0
  0
LINE
  5
362
100
AcDbEntity
  8
0
  6
CONTINUOUS
 62
          15
100
AcDbLine
 10
191.854675292969
 20
34.915740966797
 30
0.0
 11
191.854675292969
 21
37.125438690186
 31
0.0
  0
LINE
  5
363
100
AcDbEntity
  8
0
  6
CONTINUOUS
 62
          15
100
AcDbLine
 10
189.642364501953
 20
34.915740966797
 30
0.0
 11
189.642364501953
 21
37.125438690186
 31
0.0
  0
LINE
  5
364
100
AcDbEntity
  8
0
  6
CONTINUOUS
 62
          15
100
AcDbLine
 10
187.384887695313
 20
34.915740966797
 30
0.0
 11
187.384887695313
 21
37.125438690186
 31
0.0
  0
TEXT
  5
365
100
AcDbEntity
  8
0
  6
CONTINUOUS
 62
          15
100
AcDbText
 10
183.84147644043
 20
33.048430800438
 30
0.0
 40
1.200000047684
  1
TO PLANT
 41
1.249999950329
  7
ROMANT
100
AcDbText
  0
LINE
  5
366
100
AcDbEntity
  8
0
  6
CONTINUOUS
 62
          15
100
AcDbLine
 10
182.948745727539
 20
40.125438690186
 30
0.0
 11
196.198745727539
 21
40.125438690186
 31
0.0
  0
LINE
  5
367
100
AcDbEntity
  8
0
  6
CONTINUOUS
 62
          15
100
AcDbLine
 10
182.948745727539
 20
37.125438690186
 30
0.0
 11
196.198745727539
 21
37.125438690186
 31
0.0
  0
CIRCLE
  5
368
100
AcDbEntity
  8
0
  6
CONTINUOUS
 62
          15
100
AcDbCircle
 10
183.948745727539
 20
38.542633056641
 30
0.0
 40
0.600000023842
  0
LINE
  5
369
100
AcDbEntity
  8
0
  6
CONTINUOUS
 62
          15
100
AcDbLine
 10
184.373016357422
 20
38.118370056152
 30
0.0
 11
183.524475097656
 21
38.966896057129
 31
0.0
  0
CIRCLE
  5
36A
100
AcDbEntity
  8
0
  6
CONTINUOUS
 62
          15
100
AcDbCircle
 10
186.198745727539
 20
38.542633056641
 30
0.0
 40
0.600000023842
  0
LINE
  5
36B
100
AcDbEntity
  8
0
  6
CONTINUOUS
 62
          15
100
AcDbLine
 10
186.623016357422
 20
38.118370056152
 30
0.0
 11
185.774475097656
 21
38.966896057129
 31
0.0
  0
CIRCLE
  5
36C
100
AcDbEntity
  8
0
  6
CONTINUOUS
 62
          15
100
AcDbCircle
 10
188.448745727539
 20
38.542633056641
 30
0.0
 40
0.600000023842
  0
LINE
  5
36D
100
AcDbEntity
  8
0
  6
CONTINUOUS
 62
          15
100
AcDbLine
 10
188.873016357422
 20
38.118370056152
 30
0.0
 11
188.024475097656
 21
38.966896057129
 31
0.0
  0
CIRCLE
  5
36E
100
AcDbEntity
  8
0
  6
CONTINUOUS
 62
          15
100
AcDbCircle
 10
190.698745727539
 20
38.542633056641
 30
0.0
 40
0.600000023842
  0
LINE
  5
36F
100
AcDbEntity
  8
0
  6
CONTINUOUS
 62
          15
100
AcDbLine
 10
191.123016357422
 20
38.118370056152
 30
0.0
 11
190.274475097656
 21
38.966896057129
 31
0.0
  0
CIRCLE
  5
370
100
AcDbEntity
  8
0
  6
CONTINUOUS
 62
          15
100
AcDbCircle
 10
192.948745727539
 20
38.542633056641
 30
0.0
 40
0.600000023842
  0
LINE
  5
371
100
AcDbEntity
  8
0
  6
CONTINUOUS
 62
          15
100
AcDbLine
 10
193.373016357422
 20
38.118370056152
 30
0.0
 11
192.524475097656
 21
38.966896057129
 31
0.0
  0
CIRCLE
  5
372
100
AcDbEntity
  8
0
  6
CONTINUOUS
 62
          15
100
AcDbCircle
 10
195.198745727539
 20
38.542633056641
 30
0.0
 40
0.600000023842
  0
LINE
  5
373
100
AcDbEntity
  8
0
  6
CONTINUOUS
 62
          15
100
AcDbLine
 10
195.623016357422
 20
38.118370056152
 30
0.0
 11
194.774475097656
 21
38.966896057129
 31
0.0
  0
TEXT
  5
374
100
AcDbEntity
  8
0
  6
CONTINUOUS
 62
          15
100
AcDbText
 10
184.660446166992
 20
35.346104264259
 30
0.0
 40
1.299999952316
  1
C
 41
0.961538496807
  7
ROMANT
100
AcDbText
  0
TEXT
  5
375
100
AcDbEntity
  8
0
  6
CONTINUOUS
 62
          15
100
AcDbText
 10
188.089782714844
 20
35.346104264259
 30
0.0
 40
1.299999952316
  1
1
 41
0.961538496807
  7
ROMANT
100
AcDbText
  0
TEXT
  5
376
100
AcDbEntity
  8
0
  6
CONTINUOUS
 62
          15
100
AcDbText
 10
190.315216064453
 20
35.346104264259
 30
0.0
 40
1.299999952316
  1
2
 41
0.961538496807
  7
ROMANT
100
AcDbText
  0
TEXT
  5
377
100
AcDbEntity
  8
0
  6
CONTINUOUS
 62
          15
100
AcDbText
 10
192.577117919922
 20
35.346104264259
 30
0.0
 40
1.299999952316
  1
3
 41
0.961538496807
  7
ROMANT
100
AcDbText
  0
TEXT
  5
378
100
AcDbEntity
  8
0
  6
CONTINUOUS
 62
          15
100
AcDbText
 10
194.766082763672
 20
35.346104264259
 30
0.0
 40
1.299999952316
  1
4
 41
0.961538496807
  7
ROMANT
100
AcDbText
  0
LINE
  5
379
100
AcDbEntity
  8
0
  6
CONTINUOUS
 62
          15
100
AcDbLine
 10
124.809860229492
 20
32.330795288086
 30
0.0
 11
124.809860229492
 21
40.110919952393
 31
0.0
  0
LINE
  5
37A
100
AcDbEntity
  8
0
  6
CONTINUOUS
 62
          15
100
AcDbLine
 10
138.059860229492
 20
32.330795288086
 30
0.0
 11
138.059860229492
 21
40.110919952393
 31
0.0
  0
LINE
  5
37B
100
AcDbEntity
  8
0
  6
CONTINUOUS
 62
          15
100
AcDbLine
 10
124.809860229492
 20
34.901222229004
 30
0.0
 11
138.005004882813
 21
34.901222229004
 31
0.0
  0
LINE
  5
37C
100
AcDbEntity
  8
0
  6
CONTINUOUS
 62
          15
100
AcDbLine
 10
136.018417358398
 20
34.901222229004
 30
0.0
 11
136.018417358398
 21
37.110919952393
 31
0.0
  0
LINE
  5
37D
100
AcDbEntity
  8
0
  6
CONTINUOUS
 62
          15
100
AcDbLine
 10
133.715789794922
 20
34.901222229004
 30
0.0
 11
133.715789794922
 21
37.110919952393
 31
0.0
  0
LINE
  5
37E
100
AcDbEntity
  8
0
  6
CONTINUOUS
 62
          15
100
AcDbLine
 10
131.503479003906
 20
34.901222229004
 30
0.0
 11
131.503479003906
 21
37.110919952393
 31
0.0
  0
LINE
  5
37F
100
AcDbEntity
  8
0
  6
CONTINUOUS
 62
          15
100
AcDbLine
 10
129.246002197266
 20
34.901222229004
 30
0.0
 11
129.246002197266
 21
37.110919952393
 31
0.0
  0
TEXT
  5
380
100
AcDbEntity
  8
0
  6
CONTINUOUS
 62
          15
100
AcDbText
 10
125.702590942383
 20
33.033912062645
 30
0.0
 40
1.200000047684
  1
TO PLANT
 41
1.249999950329
  7
ROMANT
100
AcDbText
  0
LINE
  5
381
100
AcDbEntity
  8
0
  6
CONTINUOUS
 62
          15
100
AcDbLine
 10
124.809860229492
 20
40.110919952393
 30
0.0
 11
138.059860229492
 21
40.110919952393
 31
0.0
  0
LINE
  5
382
100
AcDbEntity
  8
0
  6
CONTINUOUS
 62
          15
100
AcDbLine
 10
124.809860229492
 20
37.110919952393
 30
0.0
 11
138.059860229492
 21
37.110919952393
 31
0.0
  0
CIRCLE
  5
383
100
AcDbEntity
  8
0
  6
CONTINUOUS
 62
          15
100
AcDbCircle
 10
125.809860229492
 20
38.528114318848
 30
0.0
 40
0.600000023842
  0
LINE
  5
384
100
AcDbEntity
  8
0
  6
CONTINUOUS
 62
          15
100
AcDbLine
 10
126.23412322998
 20
38.103851318359
 30
0.0
 11
125.385597229004
 21
38.952377319336
 31
0.0
  0
CIRCLE
  5
385
100
AcDbEntity
  8
0
  6
CONTINUOUS
 62
          15
100
AcDbCircle
 10
128.059860229492
 20
38.528114318848
 30
0.0
 40
0.600000023842
  0
LINE
  5
386
100
AcDbEntity
  8
0
  6
CONTINUOUS
 62
          15
100
AcDbLine
 10
128.484130859375
 20
38.103851318359
 30
0.0
 11
127.635597229004
 21
38.952377319336
 31
0.0
  0
CIRCLE
  5
387
100
AcDbEntity
  8
0
  6
CONTINUOUS
 62
          15
100
AcDbCircle
 10
130.309860229492
 20
38.528114318848
 30
0.0
 40
0.600000023842
  0
LINE
  5
388
100
AcDbEntity
  8
0
  6
CONTINUOUS
 62
          15
100
AcDbLine
 10
130.734130859375
 20
38.103851318359
 30
0.0
 11
129.885589599609
 21
38.952377319336
 31
0.0
  0
CIRCLE
  5
389
100
AcDbEntity
  8
0
  6
CONTINUOUS
 62
          15
100
AcDbCircle
 10
132.559860229492
 20
38.528114318848
 30
0.0
 40
0.600000023842
  0
LINE
  5
38A
100
AcDbEntity
  8
0
  6
CONTINUOUS
 62
          15
100
AcDbLine
 10
132.984130859375
 20
38.103851318359
 30
0.0
 11
132.135589599609
 21
38.952377319336
 31
0.0
  0
CIRCLE
  5
38B
100
AcDbEntity
  8
0
  6
CONTINUOUS
 62
          15
100
AcDbCircle
 10
134.809860229492
 20
38.528114318848
 30
0.0
 40
0.600000023842
  0
LINE
  5
38C
100
AcDbEntity
  8
0
  6
CONTINUOUS
 62
          15
100
AcDbLine
 10
135.234130859375
 20
38.103851318359
 30
0.0
 11
134.385589599609
 21
38.952377319336
 31
0.0
  0
CIRCLE
  5
38D
100
AcDbEntity
  8
0
  6
CONTINUOUS
 62
          15
100
AcDbCircle
 10
137.059860229492
 20
38.528114318848
 30
0.0
 40
0.600000023842
  0
LINE
  5
38E
100
AcDbEntity
  8
0
  6
CONTINUOUS
 62
          15
100
AcDbLine
 10
137.484130859375
 20
38.103851318359
 30
0.0
 11
136.635589599609
 21
38.952377319336
 31
0.0
  0
TEXT
  5
38F
100
AcDbEntity
  8
0
  6
CONTINUOUS
 62
          15
100
AcDbText
 10
126.521560668945
 20
35.331585526466
 30
0.0
 40
1.299999952316
  1
C
 41
0.961538496807
  7
ROMANT
100
AcDbText
  0
TEXT
  5
390
100
AcDbEntity
  8
0
  6
CONTINUOUS
 62
          15
100
AcDbText
 10
129.950897216797
 20
35.331585526466
 30
0.0
 40
1.299999952316
  1
1
 41
0.961538496807
  7
ROMANT
100
AcDbText
  0
TEXT
  5
391
100
AcDbEntity
  8
0
  6
CONTINUOUS
 62
          15
100
AcDbText
 10
132.176330566406
 20
35.331585526466
 30
0.0
 40
1.299999952316
  1
2
 41
0.961538496807
  7
ROMANT
100
AcDbText
  0
TEXT
  5
392
100
AcDbEntity
  8
0
  6
CONTINUOUS
 62
          15
100
AcDbText
 10
134.438232421875
 20
35.331585526466
 30
0.0
 40
1.299999952316
  1
3
 41
0.961538496807
  7
ROMANT
100
AcDbText
  0
TEXT
  5
393
100
AcDbEntity
  8
0
  6
CONTINUOUS
 62
          15
100
AcDbText
 10
136.627197265625
 20
35.331585526466
 30
0.0
 40
1.299999952316
  1
4
 41
0.961538496807
  7
ROMANT
100
AcDbText
  0
TEXT
  5
394
100
AcDbEntity
  8
0
  6
CONTINUOUS
 62
          15
100
AcDbText
 10
70.899719238281
 20
44.344509892166
 30
0.0
 40
1.0
  1
TERMINATION
 41
1.000000029802
  7
ROMANT
100
AcDbText
  0
TEXT
  5
395
100
AcDbEntity
  8
0
  6
CONTINUOUS
 62
          15
100
AcDbText
 10
126.152893066406
 20
44.440850071609
 30
0.0
 40
1.0
  1
TERMINATION
 41
1.000000029802
  7
ROMANT
100
AcDbText
  0
TEXT
  5
396
100
AcDbEntity
  8
0
  6
CONTINUOUS
 62
          15
100
AcDbText
 10
184.291778564453
 20
44.455368809402
 30
0.0
 40
1.0
  1
TERMINATION
 41
1.000000029802
  7
ROMANT
100
AcDbText
  0
TEXT
  5
397
100
AcDbEntity
  8
0
  6
CONTINUOUS
 62
          15
100
AcDbText
 10
73.831825256348
 20
43.112450413406
 30
0.0
 40
1.0
  1
BOARD
 41
1.000000029802
  7
ROMANT
100
AcDbText
  0
TEXT
  5
398
100
AcDbEntity
  8
0
  6
CONTINUOUS
 62
          15
100
AcDbText
 10
129.084991455078
 20
43.208790592849
 30
0.0
 40
1.0
  1
BOARD
 41
1.000000029802
  7
ROMANT
100
AcDbText
  0
TEXT
  5
399
100
AcDbEntity
  8
0
  6
CONTINUOUS
 62
          15
100
AcDbText
 10
187.223876953125
 20
43.223309330642
 30
0.0
 40
1.0
  1
BOARD
 41
1.000000029802
  7
ROMANT
100
AcDbText
  0
ENDSEC
  0
SECTION
  2
OBJECTS
  0
DICTIONARY
  5
19
100
AcDbDictionary
  3
ACAD_GROUP
350
1A
  3
ACAD_MLINESTYLE
350
1B
  0
DICTIONARY
  5
1A
102
{ACAD_REACTORS
330
19
102
}
100
AcDbDictionary
  0
DICTIONARY
  5
1B
102
{ACAD_REACTORS
330
19
102
}
100
AcDbDictionary
  3
STANDARD
350
1C
  0
MLINESTYLE
  5
1C
102
{ACAD_REACTORS
330
1B
102
}
100
AcDbMlineStyle
  2
STANDARD
 70
           0
  3

 62
           0
 51
90.0
 52
90.0
 71
           2
 49
0.5
 62
         256
  6
BYLAYER
 49
-0.5
 62
         256
  6
BYLAYER
  0
ENDSEC
  0
EOF
