  0
SECTION
  2
HEADER
  9
$ACADVER
  1
AC1012
  9
$DWGCODEPAGE
  3
dos850
  9
$INSBASE
 10
0.0
 20
0.0
 30
0.0
  9
$EXTMIN
 10
11.067749023438
 20
4.10928106308
 30
0.0
  9
$EXTMAX
 10
268.498069763184
 20
186.050720214844
 30
0.0
  9
$LIMMIN
 10
11.067749023438
 20
4.10928106308
  9
$LIMMAX
 10
268.498069763184
 20
186.050720214844
  9
$ORTHOMODE
 70
           0
  9
$REGENMODE
 70
           1
  9
$FILLMODE
 70
           1
  9
$QTEXTMODE
 70
           0
  9
$MIRRTEXT
 70
           1
  9
$DRAGMODE
 70
           2
  9
$LTSCALE
 40
5.0
  9
$OSMODE
 70
           0
  9
$ATTMODE
 70
           1
  9
$TEXTSIZE
 40
0.2
  9
$TRACEWID
 40
0.05
  9
$TEXTSTYLE
  7
TXT
  9
$CLAYER
  8
0
  9
$CELTYPE
  6
CONTINUOUS
  9
$CECOLOR
 62
         256
  9
$CELTSCALE
 40
1.0
  9
$DELOBJ
 70
           1
  9
$DISPSILH
 70
           0
  9
$DIMSCALE
 40
1.0
  9
$DIMASZ
 40
3.5
  9
$DIMEXO
 40
0.0625
  9
$DIMDLI
 40
0.38
  9
$DIMRND
 40
0.0
  9
$DIMDLE
 40
0.0
  9
$DIMEXE
 40
0.18
  9
$DIMTP
 40
0.0
  9
$DIMTM
 40
0.0
  9
$DIMTXT
 40
3.5
  9
$DIMCEN
 40
0.09
  9
$DIMTSZ
 40
0.0
  9
$DIMTOL
 70
           0
  9
$DIMLIM
 70
           0
  9
$DIMTIH
 70
           1
  9
$DIMTOH
 70
           1
  9
$DIMSE1
 70
           0
  9
$DIMSE2
 70
           0
  9
$DIMTAD
 70
           0
  9
$DIMZIN
 70
           0
  9
$DIMBLK
  1

  9
$DIMASO
 70
           1
  9
$DIMSHO
 70
           1
  9
$DIMPOST
  1

  9
$DIMAPOST
  1

  9
$DIMALT
 70
           0
  9
$DIMALTD
 70
           2
  9
$DIMALTF
 40
25.4
  9
$DIMLFAC
 40
1.0
  9
$DIMTOFL
 70
           0
  9
$DIMTVP
 40
0.0
  9
$DIMTIX
 70
           0
  9
$DIMSOXD
 70
           0
  9
$DIMSAH
 70
           0
  9
$DIMBLK1
  1

  9
$DIMBLK2
  1

  9
$DIMSTYLE
  2
STANDARD
  9
$DIMCLRD
 70
           0
  9
$DIMCLRE
 70
           0
  9
$DIMCLRT
 70
           0
  9
$DIMTFAC
 40
1.0
  9
$DIMGAP
 40
0.09
  9
$DIMJUST
 70
           0
  9
$DIMSD1
 70
           0
  9
$DIMSD2
 70
           0
  9
$DIMTOLJ
 70
           1
  9
$DIMTZIN
 70
           0
  9
$DIMALTZ
 70
           0
  9
$DIMALTTZ
 70
           0
  9
$DIMFIT
 70
           3
  9
$DIMUPT
 70
           0
  9
$DIMUNIT
 70
           2
  9
$DIMDEC
 70
           4
  9
$DIMTDEC
 70
           4
  9
$DIMALTU
 70
           2
  9
$DIMALTTD
 70
           2
  9
$DIMTXSTY
  7
TXT
  9
$DIMAUNIT
 70
           0
  9
$LUNITS
 70
           2
  9
$LUPREC
 70
           2
  9
$SKETCHINC
 40
0.1
  9
$FILLETRAD
 40
0.0
  9
$AUNITS
 70
           0
  9
$AUPREC
 70
           2
  9
$MENU
  1
acad
  9
$ELEVATION
 40
0.0
  9
$PELEVATION
 40
0.0
  9
$THICKNESS
 40
0.0
  9
$LIMCHECK
 70
           0
  9
$BLIPMODE
 70
           1
  9
$CHAMFERA
 40
0.0
  9
$CHAMFERB
 40
0.0
  9
$CHAMFERC
 40
0.0
  9
$CHAMFERD
 40
0.0
  9
$SKPOLY
 70
           0
  9
$TDCREATE
 40
0.000000000
  9
$TDUPDATE
 40
0.000000000
  9
$TDINDWG
 40
0.0000000000
  9
$TDUSRTIMER
 40
0.0000000000
  9
$USRTIMER
 70
           1
  9
$ANGBASE
 50
0.0
  9
$ANGDIR
 70
           0
  9
$PDMODE
 70
           2
  9
$PDSIZE
 40
0.5
  9
$PLINEWID
 40
0.0
  9
$COORDS
 70
           0
  9
$SPLFRAME
 70
           0
  9
$SPLINETYPE
 70
           6
  9
$SPLINESEGS
 70
           8
  9
$ATTDIA
 70
           0
  9
$ATTREQ
 70
           1
  9
$HANDLING
 70
           1
  9
$HANDSEED
  5
321
  9
$SURFTAB1
 70
           6
  9
$SURFTAB2
 70
           6
  9
$SURFTYPE
 70
           6
  9
$SURFU
 70
           6
  9
$SURFV
 70
           6
  9
$UCSNAME
  2

  9
$UCSORG
 10
0.0
 20
0.0
 30
0.0
  9
$UCSXDIR
 10
1.0
 20
0.0
 30
0.0
  9
$UCSYDIR
 10
0.0
 20
1.0
 30
0.0
  9
$PUCSNAME
  2

  9
$PUCSORG
 10
0.0
 20
0.0
 30
0.0
  9
$PUCSXDIR
 10
1.0
 20
0.0
 30
0.0
  9
$PUCSYDIR
 10
0.0
 20
1.0
 30
0.0
  9
$USERI1
 70
           0
  9
$USERI2
 70
           0
  9
$USERI3
 70
           0
  9
$USERI4
 70
           0
  9
$USERI5
 70
           0
  9
$USERR1
 40
0.0
  9
$USERR2
 40
0.0
  9
$USERR3
 40
0.0
  9
$USERR4
 40
0.0
  9
$USERR5
 40
0.0
  9
$WORLDVIEW
 70
           1
  9
$SHADEDGE
 70
           3
  9
$SHADEDIF
 70
          70
  9
$TILEMODE
 70
           1
  9
$MAXACTVP
 70
          16
  9
$PINSBASE
 10
0.0
 20
0.0
 30
0.0
  9
$PLIMCHECK
 70
           0
  9
$PEXTMIN
 10
1.000000000000E+20
 20
1.000000000000E+20
 30
1.000000000000E+20
  9
$PEXTMAX
 10
-1.000000000000E+20
 20
-1.000000000000E+20
 30
-1.000000000000E+20
  9
$PLIMMIN
 10
0.0
 20
0.0
  9
$PLIMMAX
 10
12.0
 20
9.0
  9
$UNITMODE
 70
           0
  9
$VISRETAIN
 70
           0
  9
$PLINEGEN
 70
           1
  9
$PSLTSCALE
 70
           0
  9
$TREEDEPTH
 70
        3020
  9
$PICKSTYLE
 70
           1
  9
$CMLSTYLE
  2
STANDARD
  9
$CMLJUST
 70
           0
  9
$CMLSCALE
 40
1.0
  9
$SAVEIMAGES
 70
           0
  0
ENDSEC
  0
SECTION
  2
CLASSES
  0
CLASS
  1
LWPOLYLINE
  2
AcDbPolyline
  3
"AutoCAD"
 90
        0
280
           0
281
           1
  0
CLASS
  1
IMAGE
  2
AcDbRasterImage
  3
ISM
 90
      127
280
           0
281
           1
  0
CLASS
  1
OLE2FRAME
  2
AcDbOle2Frame
  3
""
 90
        0
280
           0
281
           1
  0
CLASS
  1
HATCH
  2
AcDbHatch
  3
"ACAD_SEDONA"
 90
        0
280
           0
281
           1
  0
CLASS
  1
DICTIONARYVAR
  2
AcDbDictionaryVar
  3
"AutoCAD"
 90
        0
280
           0
281
           0
  0
CLASS
  1
RASTERVARIABLES
  2
AcDbRasterVariables
  3
ISM
 90
        0
280
           0
281
           0
  0
CLASS
  1
IMAGEDEF
  2
AcDbRasterImageDef
  3
ISM
 90
        0
280
           0
281
           0
  0
CLASS
  1
IMAGEDEF_REACTOR
  2
AcDbRasterImageDefReactor
  3
ISM
 90
        1
280
           0
281
           0
  0
CLASS
  1
IDBUFFER
  2
AcDbIdBuffer
  3
"Acad"
 90
        0
280
           0
281
           0
  0
CLASS
  1
SPATIAL_FILTER
  2
AcDbSpatialFilter
  3
"Acad"
 90
        0
280
           0
281
           0
  0
CLASS
  1
XRECORD
  2
AcDbXrecord
  3
"<Built In>"
 90
        0
280
           0
281
           0
  0
ENDSEC
  0
SECTION
  2
TABLES
  0
TABLE
  2
VPORT
  5
7
100
AcDbSymbolTable
 70
           1
  0
VPORT
  5
15
100
AcDbSymbolTableRecord
100
AcDbViewportTableRecord
  2
*ACTIVE
 70
           0
 10
0.0
 20
0.0
 11
1.0
 21
1.0
 12
6.591288
 22
4.579184
 13
0.0
 23
0.0
 14
1.0
 24
1.0
 15
0.0
 25
0.0
 16
0.0
 26
0.0
 36
1.0
 17
0.0
 27
0.0
 37
0.0
 40
9.158369
 41
0.688564
 42
50.0
 43
0.0
 44
0.0
 50
0.0
 51
0.0
 71
           0
 72
         100
 73
           1
 74
           1
 75
           0
 76
           0
 77
           0
 78
           0
  0
ENDTAB
  0
TABLE
  2
LTYPE
  5
4
100
AcDbSymbolTable
 70
           3
  0
LTYPE
  5
11
100
AcDbSymbolTableRecord
100
AcDbLinetypeTableRecord
  2
BYBLOCK
 70
           0
  3

 72
          65
 73
           0
 40
0.0
  0
LTYPE
  5
12
100
AcDbSymbolTableRecord
100
AcDbLinetypeTableRecord
  2
BYLAYER
 70
           0
  3

 72
          65
 73
           0
 40
0.0
  0
LTYPE
  5
13
100
AcDbSymbolTableRecord
100
AcDbLinetypeTableRecord
  2
CONTINUOUS
 70
           0
  3
Solid line
 72
          65
 73
           0
 40
0.0
  0
ENDTAB
  0
TABLE
  2
LAYER
  5
2
100
AcDbSymbolTable
 70
           1
  0
LAYER
  5
14
100
AcDbSymbolTableRecord
100
AcDbLayerTableRecord
  2
0
 70
           0
 62
           7
  6
CONTINUOUS
  0
ENDTAB
  0
TABLE
  2
STYLE
  5
3
100
AcDbSymbolTable
 70
           6
  0
STYLE
  5
17
100
AcDbSymbolTableRecord
100
AcDbTextStyleTableRecord
  2
TXT
 70
           0
 40
3.5
 41
1.0
 50
0.0
 71
           0
 42
3.5
  3
TXT
  4

  0
STYLE
  5
1D
100
AcDbSymbolTableRecord
100
AcDbTextStyleTableRecord
  2
ROMANT
 70
           0
 40
3.5
 41
1.0
 50
0.0
 71
           0
 42
3.5
  3
ROMANT
  4

  0
STYLE
  5
1E
100
AcDbSymbolTableRecord
100
AcDbTextStyleTableRecord
  2
ROMAND
 70
           0
 40
3.5
 41
1.0
 50
0.0
 71
           0
 42
3.5
  3
ROMAND
  4

  0
STYLE
  5
1F
100
AcDbSymbolTableRecord
100
AcDbTextStyleTableRecord
  2
GOTHICI
 70
           0
 40
3.5
 41
1.0
 50
0.0
 71
           0
 42
3.5
  3
GOTHICI
  4

  0
STYLE
  5
20
100
AcDbSymbolTableRecord
100
AcDbTextStyleTableRecord
  2
GOTHICG
 70
           0
 40
3.5
 41
1.0
 50
0.0
 71
           0
 42
3.5
  3
GOTHICG
  4

  0
STYLE
  5
21
100
AcDbSymbolTableRecord
100
AcDbTextStyleTableRecord
  2
SIMPLEX
 70
           0
 40
3.5
 41
1.0
 50
0.0
 71
           0
 42
3.5
  3
SIMPLEX
  4

  0
ENDTAB
  0
TABLE
  2
VIEW
  5
5
100
AcDbSymbolTable
 70
           0
  0
ENDTAB
  0
TABLE
  2
UCS
  5
6
100
AcDbSymbolTable
 70
           0
  0
ENDTAB
  0
TABLE
  2
APPID
  5
8
100
AcDbSymbolTable
 70
           2
  0
APPID
  5
16
100
AcDbSymbolTableRecord
100
AcDbRegAppTableRecord
  2
ACAD
 70
           0
  0
APPID
  5
22
100
AcDbSymbolTableRecord
100
AcDbRegAppTableRecord
  2
MegaCADPntStyle
 70
           0
  0
ENDTAB
  0
TABLE
  2
DIMSTYLE
  5
9
100
AcDbSymbolTable
 70
           1
  0
DIMSTYLE
105
18
100
AcDbSymbolTableRecord
100
AcDbDimStyleTableRecord
  2
STANDARD
 70
           0
  3

  4

  5

  6

  7

 40
1.0
 41
0.18
 42
0.0625
 43
0.38
 44
0.18
 45
0.0
 46
0.0
 47
0.0
 48
0.0
140
0.18
141
0.09
142
0.0
143
25.4
144
1.0
145
0.0
146
1.0
147
0.09
 71
           0
 72
           0
 73
           1
 74
           1
 75
           0
 76
           0
 77
           0
 78
           0
170
           0
171
           2
172
           0
173
           0
174
           0
175
           0
176
           0
177
           0
178
           0
270
           2
271
           4
272
           4
273
           2
274
           2
340
17
275
           0
280
           0
281
           0
282
           0
283
           1
284
           0
285
           0
286
           0
287
           0
288
           0
  0
ENDTAB
  0
TABLE
  2
BLOCK_RECORD
  5
1
100
AcDbSymbolTable
 70
           7
  0
BLOCK_RECORD
  5
A
100
AcDbSymbolTableRecord
100
AcDbBlockTableRecord
  2
*MODEL_SPACE
  0
BLOCK_RECORD
  5
B
100
AcDbSymbolTableRecord
100
AcDbBlockTableRecord
  2
*PAPER_SPACE
  0
BLOCK_RECORD
  5
23
100
AcDbSymbolTableRecord
100
AcDbBlockTableRecord
  2
ELIPPSE
  0
BLOCK_RECORD
  5
24
100
AcDbSymbolTableRecord
100
AcDbBlockTableRecord
  2
SUPPLY_1
  0
BLOCK_RECORD
  5
25
100
AcDbSymbolTableRecord
100
AcDbBlockTableRecord
  2
SATERM_2
  0
BLOCK_RECORD
  5
26
100
AcDbSymbolTableRecord
100
AcDbBlockTableRecord
  2
SA_3
  0
BLOCK_RECORD
  5
27
100
AcDbSymbolTableRecord
100
AcDbBlockTableRecord
  2
CABLEREQ_4
  0
BLOCK_RECORD
  5
28
100
AcDbSymbolTableRecord
100
AcDbBlockTableRecord
  2
TB2_5
  0
BLOCK_RECORD
  5
29
100
AcDbSymbolTableRecord
100
AcDbBlockTableRecord
  2
RES_6
  0
ENDTAB
  0
ENDSEC
  0
SECTION
  2
BLOCKS
  0
BLOCK
  5
D
100
AcDbEntity
  8
0
100
AcDbBlockBegin
  2
*MODEL_SPACE
 70
           0
 10
0.0
 20
0.0
 30
0.0
  3
*MODEL_SPACE
  1

  0
ENDBLK
  5
E
100
AcDbEntity
  8
0
100
AcDbBlockEnd
  0
BLOCK
  5
F
100
AcDbEntity
 67
           1
  8
0
100
AcDbBlockBegin
  2
*PAPER_SPACE
 70
           0
 10
0.0
 20
0.0
 30
0.0
  3
*PAPER_SPACE
  1

  0
ENDBLK
  5
10
100
AcDbEntity
 67
           1
  8
0
100
AcDbBlockEnd
  0
BLOCK
  5
236
100
AcDbEntity
  8
0
100
AcDbBlockBegin
  2
ELIPPSE
 70
          64
 10
0.0
 20
0.0
 30
0.0
  3
ELIPPSE
  1

  0
CIRCLE
  5
237
100
AcDbEntity
  8
0
  6
BYBLOCK
 62
           0
100
AcDbCircle
 10
0.0
 20
0.0
 30
0.0
 40
1.0
  0
ENDBLK
  5
238
100
AcDbEntity
  8
0
  6
BYBLOCK
 62
           0
100
AcDbBlockEnd
  0
BLOCK
  5
239
100
AcDbEntity
  8
0
100
AcDbBlockBegin
  2
SUPPLY_1
 70
          64
 10
0.0
 20
0.0
 30
0.0
  3
SUPPLY_1
  1

  0
TEXT
  5
23A
100
AcDbEntity
  8
0
  6
CONTINUOUS
 62
          15
100
AcDbText
 10
15.666514078776
 20
-12.41656289498
 30
0.0
 40
1.0
  1
LIVE
 41
1.000000039736
  7
GOTHICG
100
AcDbText
  0
TEXT
  5
23B
100
AcDbEntity
  8
0
  6
CONTINUOUS
 62
          15
100
AcDbText
 10
15.846384684245
 20
-9.897260526816
 30
0.0
 40
1.0
  1
EARTH
 41
1.000000039736
  7
GOTHICG
100
AcDbText
  0
TEXT
  5
23C
100
AcDbEntity
  8
0
  6
CONTINUOUS
 62
          15
100
AcDbText
 10
15.666514078776
 20
-7.737857043743
 30
0.0
 40
1.0
  1
NEUTRAL
 41
1.000000039736
  7
GOTHICG
100
AcDbText
  0
LINE
  5
23D
100
AcDbEntity
  8
0
  6
CONTINUOUS
 62
          15
100
AcDbLine
 10
2.304016113281
 20
-7.198003133138
 30
0.0
 11
13.730753580729
 21
-7.198003133138
 31
0.0
  0
LINE
  5
23E
100
AcDbEntity
  8
0
  6
CONTINUOUS
 62
          15
100
AcDbLine
 10
0.0
 20
-9.537358601888
 30
0.0
 11
13.730753580729
 21
-9.537358601888
 31
0.0
  0
LINE
  5
23F
100
AcDbEntity
  8
0
  6
CONTINUOUS
 62
          15
100
AcDbLine
 10
-2.303955078125
 20
-11.876714070638
 30
0.0
 11
13.730753580729
 21
-11.876714070638
 31
0.0
  0
LINE
  5
240
100
AcDbEntity
  8
0
  6
CONTINUOUS
 62
          15
100
AcDbLine
 10
2.304016113281
 20
-7.198003133138
 30
0.0
 11
2.304016113281
 21
0.0
 31
0.0
  0
LINE
  5
241
100
AcDbEntity
  8
0
  6
CONTINUOUS
 62
          15
100
AcDbLine
 10
0.0
 20
-9.537358601888
 30
0.0
 11
0.0
 21
0.0
 31
0.0
  0
LINE
  5
242
100
AcDbEntity
  8
0
  6
CONTINUOUS
 62
          15
100
AcDbLine
 10
-2.303955078125
 20
-11.876714070638
 30
0.0
 11
-2.303955078125
 21
0.0
 31
0.0
  0
ENDBLK
  5
243
100
AcDbEntity
  8
0
  6
BYBLOCK
 62
           0
100
AcDbBlockEnd
  0
BLOCK
  5
244
100
AcDbEntity
  8
0
100
AcDbBlockBegin
  2
SATERM_2
 70
          64
 10
0.0
 20
0.0
 30
0.0
  3
SATERM_2
  1

  0
LINE
  5
245
100
AcDbEntity
  8
0
  6
CONTINUOUS
 62
          15
100
AcDbLine
 10
-14.320653915405
 20
-1.701705932617
 30
0.0
 11
-14.320653915405
 21
15.428283691406
 31
0.0
  0
LINE
  5
246
100
AcDbEntity
  8
0
  6
CONTINUOUS
 62
          15
100
AcDbLine
 10
-14.320653915405
 20
15.428283691406
 30
0.0
 11
18.948917388916
 21
15.428283691406
 31
0.0
  0
LINE
  5
247
100
AcDbEntity
  8
0
  6
CONTINUOUS
 62
          15
100
AcDbLine
 10
14.089706420898
 20
0.762451171875
 30
0.0
 11
17.809825897217
 21
0.762451171875
 31
0.0
  0
LINE
  5
248
100
AcDbEntity
  8
0
  6
CONTINUOUS
 62
          15
100
AcDbLine
 10
14.089706420898
 20
0.762451171875
 30
0.0
 11
14.089706420898
 21
-1.461074829102
 31
0.0
  0
LINE
  5
249
100
AcDbEntity
  8
0
  6
CONTINUOUS
 62
          15
100
AcDbLine
 10
10.226364135742
 20
12.501068115234
 30
0.0
 11
21.306751251221
 21
12.501068115234
 31
0.0
  0
LINE
  5
24A
100
AcDbEntity
  8
0
  6
CONTINUOUS
 62
          15
100
AcDbLine
 10
10.226364135742
 20
12.501068115234
 30
0.0
 11
10.226364135742
 21
-2.929977416992
 31
0.0
  0
ELLIPSE
  5
24B
100
AcDbEntity
  8
0
  6
CONTINUOUS
 62
          15
100
AcDbEllipse
 10
-0.37882232666
 20
8.571105957031
 30
0.0
 11
22.749999999999996
 21
0.0
 31
0.0
210
0.0
220
0.0
230
1.0
 40
0.571428571429
 41
0.0
 42
6.2831853071795862
  0
LINE
  5
24C
100
AcDbEntity
  8
0
  6
CONTINUOUS
 62
          15
100
AcDbLine
 10
1.956241607666
 20
7.754592895508
 30
0.0
 11
1.956241607666
 21
16.399612426758
 31
0.0
  0
ENDBLK
  5
24D
100
AcDbEntity
  8
0
  6
BYBLOCK
 62
           0
100
AcDbBlockEnd
  0
BLOCK
  5
24E
100
AcDbEntity
  8
0
100
AcDbBlockBegin
  2
SA_3
 70
          64
 10
0.0
 20
0.0
 30
0.0
  3
SA_3
  1

  0
LINE
  5
24F
100
AcDbEntity
  8
0
  6
CONTINUOUS
 62
          15
100
AcDbLine
 10
-23.587493896484
 20
0.0
 30
0.0
 11
-23.587493896484
 21
31.049987792969
 31
0.0
  0
LINE
  5
250
100
AcDbEntity
  8
0
  6
CONTINUOUS
 62
          15
100
AcDbLine
 10
23.587501525879
 20
0.0
 30
0.0
 11
23.587501525879
 21
31.049987792969
 31
0.0
  0
LINE
  5
251
100
AcDbEntity
  8
0
  6
CONTINUOUS
 62
          15
100
AcDbLine
 10
22.837501525879
 20
1.349990844727
 30
0.0
 11
22.837501525879
 21
29.699996948242
 31
0.0
  0
LINE
  5
252
100
AcDbEntity
  8
0
  6
CONTINUOUS
 62
          15
100
AcDbLine
 10
-22.837493896484
 20
1.349990844727
 30
0.0
 11
-22.837493896484
 21
29.699996948242
 31
0.0
  0
LINE
  5
253
100
AcDbEntity
  8
0
  6
CONTINUOUS
 62
          15
100
AcDbLine
 10
-22.387496948242
 20
30.149993896484
 30
0.0
 11
22.387504577637
 21
30.149993896484
 31
0.0
  0
LINE
  5
254
100
AcDbEntity
  8
0
  6
CONTINUOUS
 62
          15
100
AcDbLine
 10
-22.387496948242
 20
0.899993896484
 30
0.0
 11
22.387504577637
 21
0.899993896484
 31
0.0
  0
LINE
  5
255
100
AcDbEntity
  8
0
  6
CONTINUOUS
 62
          15
100
AcDbLine
 10
-23.587493896484
 20
31.049987792969
 30
0.0
 11
23.587501525879
 21
31.049987792969
 31
0.0
  0
LINE
  5
256
100
AcDbEntity
  8
0
  6
CONTINUOUS
 62
          15
100
AcDbLine
 10
-23.587493896484
 20
0.0
 30
0.0
 11
23.587501525879
 21
0.0
 31
0.0
  0
LINE
  5
257
100
AcDbEntity
  8
0
  6
CONTINUOUS
 62
          15
100
AcDbLine
 10
-20.624992370605
 20
3.149993896484
 30
0.0
 11
-20.624992370605
 21
27.899993896484
 31
0.0
  0
LINE
  5
258
100
AcDbEntity
  8
0
  6
CONTINUOUS
 62
          15
100
AcDbLine
 10
20.625
 20
3.149993896484
 30
0.0
 11
20.625
 21
27.899993896484
 31
0.0
  0
LINE
  5
259
100
AcDbEntity
  8
0
  6
CONTINUOUS
 62
          15
100
AcDbLine
 10
-20.624992370605
 20
27.899993896484
 30
0.0
 11
20.625
 21
27.899993896484
 31
0.0
  0
LINE
  5
25A
100
AcDbEntity
  8
0
  6
CONTINUOUS
 62
          15
100
AcDbLine
 10
-20.624992370605
 20
3.149993896484
 30
0.0
 11
20.625
 21
3.149993896484
 31
0.0
  0
LINE
  5
25B
100
AcDbEntity
  8
0
  6
CONTINUOUS
 62
          15
100
AcDbLine
 10
-17.849990844727
 20
26.474990844727
 30
0.0
 11
17.850006103516
 21
26.474990844727
 31
0.0
  0
LINE
  5
25C
100
AcDbEntity
  8
0
  6
CONTINUOUS
 62
          15
100
AcDbLine
 10
-17.849990844727
 20
23.699996948242
 30
0.0
 11
17.850006103516
 21
23.699996948242
 31
0.0
  0
LINE
  5
25D
100
AcDbEntity
  8
0
  6
CONTINUOUS
 62
          15
100
AcDbLine
 10
-18.299995422363
 20
22.724990844727
 30
0.0
 11
18.300003051758
 21
22.724990844727
 31
0.0
  0
LINE
  5
25E
100
AcDbEntity
  8
0
  6
CONTINUOUS
 62
          15
100
AcDbLine
 10
-18.299995422363
 20
12.074996948242
 30
0.0
 11
18.300003051758
 21
12.074996948242
 31
0.0
  0
LINE
  5
25F
100
AcDbEntity
  8
0
  6
CONTINUOUS
 62
          15
100
AcDbLine
 10
-10.049995422363
 20
10.949996948242
 30
0.0
 11
17.850006103516
 21
10.949996948242
 31
0.0
  0
LINE
  5
260
100
AcDbEntity
  8
0
  6
CONTINUOUS
 62
          15
100
AcDbLine
 10
-11.849990844727
 20
10.949996948242
 30
0.0
 11
-10.049995422363
 21
10.949996948242
 31
0.0
  0
LINE
  5
261
100
AcDbEntity
  8
0
  6
CONTINUOUS
 62
          15
100
AcDbLine
 10
-17.849990844727
 20
10.949996948242
 30
0.0
 11
-11.849990844727
 21
10.949996948242
 31
0.0
  0
LINE
  5
262
100
AcDbEntity
  8
0
  6
CONTINUOUS
 62
          15
100
AcDbLine
 10
-17.849990844727
 20
4.199996948242
 30
0.0
 11
17.850006103516
 21
4.199996948242
 31
0.0
  0
LINE
  5
263
100
AcDbEntity
  8
0
  6
CONTINUOUS
 62
          15
100
AcDbLine
 10
-18.599990844727
 20
24.449996948242
 30
0.0
 11
-18.599990844727
 21
25.724990844727
 31
0.0
  0
LINE
  5
264
100
AcDbEntity
  8
0
  6
CONTINUOUS
 62
          15
100
AcDbLine
 10
-18.599990844727
 20
12.375
 30
0.0
 11
-18.599990844727
 21
22.424987792969
 31
0.0
  0
LINE
  5
265
100
AcDbEntity
  8
0
  6
CONTINUOUS
 62
          15
100
AcDbLine
 10
-18.599990844727
 20
4.949996948242
 30
0.0
 11
-18.599990844727
 21
10.199996948242
 31
0.0
  0
LINE
  5
266
100
AcDbEntity
  8
0
  6
CONTINUOUS
 62
          15
100
AcDbLine
 10
18.600006103516
 20
24.449996948242
 30
0.0
 11
18.600006103516
 21
25.724990844727
 31
0.0
  0
ARC
  5
267
100
AcDbEntity
  8
0
  6
CONTINUOUS
 62
          15
100
AcDbCircle
 10
-17.849990844727
 20
25.724990844727
 30
0.0
 40
0.75
100
AcDbArc
 50
90.000002504478
 51
180.000008651422
  0
ARC
  5
268
100
AcDbEntity
  8
0
  6
CONTINUOUS
 62
          15
100
AcDbCircle
 10
-17.849990844727
 20
24.449996948242
 30
0.0
 40
0.75
100
AcDbArc
 50
180.000008651422
 51
269.999997495521
  0
ARC
  5
269
100
AcDbEntity
  8
0
  6
CONTINUOUS
 62
          15
100
AcDbCircle
 10
17.850006103516
 20
24.449996948242
 30
0.0
 40
0.75
100
AcDbArc
 50
269.999997495521
 51
0.0
  0
ARC
  5
26A
100
AcDbEntity
  8
0
  6
CONTINUOUS
 62
          15
100
AcDbCircle
 10
17.850006103516
 20
25.724990844727
 30
0.0
 40
0.75
100
AcDbArc
 50
0.0
 51
90.000002504478
  0
ARC
  5
26B
100
AcDbEntity
  8
0
  6
CONTINUOUS
 62
          15
100
AcDbCircle
 10
17.850006103516
 20
10.199996948242
 30
0.0
 40
0.75
100
AcDbArc
 50
0.0
 51
90.000002504478
  0
ARC
  5
26C
100
AcDbEntity
  8
0
  6
CONTINUOUS
 62
          15
100
AcDbCircle
 10
17.850006103516
 20
4.949996948242
 30
0.0
 40
0.75
100
AcDbArc
 50
269.999997495521
 51
0.0
  0
ARC
  5
26D
100
AcDbEntity
  8
0
  6
CONTINUOUS
 62
          15
100
AcDbCircle
 10
-17.849990844727
 20
4.949996948242
 30
0.0
 40
0.75
100
AcDbArc
 50
180.000008651422
 51
269.999997495521
  0
ARC
  5
26E
100
AcDbEntity
  8
0
  6
CONTINUOUS
 62
          15
100
AcDbCircle
 10
-17.849990844727
 20
10.199996948242
 30
0.0
 40
0.75
100
AcDbArc
 50
90.000002504478
 51
180.000008651422
  0
ARC
  5
26F
100
AcDbEntity
  8
0
  6
CONTINUOUS
 62
          15
100
AcDbCircle
 10
-18.299995422363
 20
22.424987792969
 30
0.0
 40
0.300000011921
100
AcDbArc
 50
90.000002504478
 51
180.000008651422
  0
ARC
  5
270
100
AcDbEntity
  8
0
  6
CONTINUOUS
 62
          15
100
AcDbCircle
 10
18.300003051758
 20
22.424987792969
 30
0.0
 40
0.300000011921
100
AcDbArc
 50
0.0
 51
90.000002504478
  0
ARC
  5
271
100
AcDbEntity
  8
0
  6
CONTINUOUS
 62
          15
100
AcDbCircle
 10
18.300003051758
 20
12.375
 30
0.0
 40
0.300000011921
100
AcDbArc
 50
269.999997495521
 51
0.0
  0
ARC
  5
272
100
AcDbEntity
  8
0
  6
CONTINUOUS
 62
          15
100
AcDbCircle
 10
-18.299995422363
 20
12.375
 30
0.0
 40
0.300000011921
100
AcDbArc
 50
180.000008651422
 51
269.999997495521
  0
LINE
  5
273
100
AcDbEntity
  8
0
  6
CONTINUOUS
 62
          15
100
AcDbLine
 10
-13.349990844727
 20
7.649993896484
 30
0.0
 11
-13.349990844727
 21
9.449996948242
 31
0.0
  0
LINE
  5
274
100
AcDbEntity
  8
0
  6
CONTINUOUS
 62
          15
100
AcDbLine
 10
-8.549995422363
 20
7.649993896484
 30
0.0
 11
-8.549995422363
 21
9.449996948242
 31
0.0
  0
LINE
  5
275
100
AcDbEntity
  8
0
  6
CONTINUOUS
 62
          15
100
AcDbLine
 10
-11.849990844727
 20
6.149993896484
 30
0.0
 11
-10.049995422363
 21
6.149993896484
 31
0.0
  0
LINE
  5
276
100
AcDbEntity
  8
0
  6
CONTINUOUS
 62
          15
100
AcDbLine
 10
1.200012207031
 20
10.5
 30
0.0
 11
12.600006103516
 21
10.5
 31
0.0
  0
LINE
  5
277
100
AcDbEntity
  8
0
  6
CONTINUOUS
 62
          15
100
AcDbLine
 10
1.5
 20
4.799987792969
 30
0.0
 11
12.600006103516
 21
4.799987792969
 31
0.0
  0
LINE
  5
278
100
AcDbEntity
  8
0
  6
CONTINUOUS
 62
          15
100
AcDbLine
 10
12.900009155273
 20
5.099990844727
 30
0.0
 11
12.900009155273
 21
10.199996948242
 31
0.0
  0
LINE
  5
279
100
AcDbEntity
  8
0
  6
CONTINUOUS
 62
          15
100
AcDbLine
 10
1.200012207031
 20
5.099990844727
 30
0.0
 11
1.200012207031
 21
10.199996948242
 31
0.0
  0
ARC
  5
27A
100
AcDbEntity
  8
0
  6
CONTINUOUS
 62
          15
100
AcDbCircle
 10
1.5
 20
10.199996948242
 30
0.0
 40
0.300000011921
100
AcDbArc
 50
90.000002504478
 51
180.000008651422
  0
ARC
  5
27B
100
AcDbEntity
  8
0
  6
CONTINUOUS
 62
          15
100
AcDbCircle
 10
1.5
 20
5.099990844727
 30
0.0
 40
0.300000011921
100
AcDbArc
 50
180.000008651422
 51
269.999997495521
  0
ARC
  5
27C
100
AcDbEntity
  8
0
  6
CONTINUOUS
 62
          15
100
AcDbCircle
 10
12.600006103516
 20
5.099990844727
 30
0.0
 40
0.300000011921
100
AcDbArc
 50
269.999997495521
 51
0.0
  0
ARC
  5
27D
100
AcDbEntity
  8
0
  6
CONTINUOUS
 62
          15
100
AcDbCircle
 10
12.600006103516
 20
10.199996948242
 30
0.0
 40
0.300000011921
100
AcDbArc
 50
0.0
 51
90.000002504478
  0
ARC
  5
27E
100
AcDbEntity
  8
0
  6
CONTINUOUS
 62
          15
100
AcDbCircle
 10
-10.049995422363
 20
7.649993896484
 30
0.0
 40
1.5
100
AcDbArc
 50
269.999997495521
 51
0.0
  0
ARC
  5
27F
100
AcDbEntity
  8
0
  6
CONTINUOUS
 62
          15
100
AcDbCircle
 10
-11.849990844727
 20
7.649993896484
 30
0.0
 40
1.5
100
AcDbArc
 50
180.000008651422
 51
269.999997495521
  0
ARC
  5
280
100
AcDbEntity
  8
0
  6
CONTINUOUS
 62
          15
100
AcDbCircle
 10
-10.049995422363
 20
9.449996948242
 30
0.0
 40
1.5
100
AcDbArc
 50
0.0
 51
90.000002504478
  0
ARC
  5
281
100
AcDbEntity
  8
0
  6
CONTINUOUS
 62
          15
100
AcDbCircle
 10
-11.849990844727
 20
9.449996948242
 30
0.0
 40
1.5
100
AcDbArc
 50
90.000002504478
 51
180.000008651422
  0
TEXT
  5
282
100
AcDbEntity
  8
0
  6
CONTINUOUS
 62
          15
100
AcDbText
 10
-10.713287353516
 20
24.367144793272
 30
0.0
 40
1.5
  1
MEDICAL GAS ALARM
 41
0.933333337307
  7
ROMAND
100
AcDbText
  0
LINE
  5
283
100
AcDbEntity
  8
0
  6
CONTINUOUS
 62
          15
100
AcDbLine
 10
-17.549995422363
 20
14.024993896484
 30
0.0
 11
-17.549995422363
 21
21.524993896484
 31
0.0
  0
LINE
  5
284
100
AcDbEntity
  8
0
  6
CONTINUOUS
 62
          15
100
AcDbLine
 10
-13.649993896484
 20
14.024993896484
 30
0.0
 11
-13.649993896484
 21
21.524993896484
 31
0.0
  0
LINE
  5
285
100
AcDbEntity
  8
0
  6
CONTINUOUS
 62
          15
100
AcDbLine
 10
-17.249992370605
 20
21.824996948242
 30
0.0
 11
-13.949996948242
 21
21.824996948242
 31
0.0
  0
LINE
  5
286
100
AcDbEntity
  8
0
  6
CONTINUOUS
 62
          15
100
AcDbLine
 10
-17.249992370605
 20
13.724990844727
 30
0.0
 11
-13.949996948242
 21
13.724990844727
 31
0.0
  0
ARC
  5
287
100
AcDbEntity
  8
0
  6
CONTINUOUS
 62
          15
100
AcDbCircle
 10
-17.249992370605
 20
21.524993896484
 30
0.0
 40
0.300000011921
100
AcDbArc
 50
90.000002504478
 51
180.000008651422
  0
ARC
  5
288
100
AcDbEntity
  8
0
  6
CONTINUOUS
 62
          15
100
AcDbCircle
 10
-13.949996948242
 20
21.524993896484
 30
0.0
 40
0.300000011921
100
AcDbArc
 50
0.0
 51
90.000002504478
  0
ARC
  5
289
100
AcDbEntity
  8
0
  6
CONTINUOUS
 62
          15
100
AcDbCircle
 10
-13.949996948242
 20
14.024993896484
 30
0.0
 40
0.300000011921
100
AcDbArc
 50
269.999997495521
 51
0.0
  0
ARC
  5
28A
100
AcDbEntity
  8
0
  6
CONTINUOUS
 62
          15
100
AcDbCircle
 10
-17.249992370605
 20
14.024993896484
 30
0.0
 40
0.300000011921
100
AcDbArc
 50
180.000008651422
 51
269.999997495521
  0
LINE
  5
28B
100
AcDbEntity
  8
0
  6
CONTINUOUS
 62
          15
100
AcDbLine
 10
-12.299995422363
 20
14.024993896484
 30
0.0
 11
-12.299995422363
 21
21.524993896484
 31
0.0
  0
LINE
  5
28C
100
AcDbEntity
  8
0
  6
CONTINUOUS
 62
          15
100
AcDbLine
 10
-8.399993896484
 20
14.024993896484
 30
0.0
 11
-8.399993896484
 21
21.524993896484
 31
0.0
  0
LINE
  5
28D
100
AcDbEntity
  8
0
  6
CONTINUOUS
 62
          15
100
AcDbLine
 10
-11.999992370605
 20
21.824996948242
 30
0.0
 11
-8.699996948242
 21
21.824996948242
 31
0.0
  0
LINE
  5
28E
100
AcDbEntity
  8
0
  6
CONTINUOUS
 62
          15
100
AcDbLine
 10
-11.999992370605
 20
13.724990844727
 30
0.0
 11
-8.699996948242
 21
13.724990844727
 31
0.0
  0
ARC
  5
28F
100
AcDbEntity
  8
0
  6
CONTINUOUS
 62
          15
100
AcDbCircle
 10
-11.999992370605
 20
21.524993896484
 30
0.0
 40
0.300000011921
100
AcDbArc
 50
90.000002504478
 51
180.000008651422
  0
ARC
  5
290
100
AcDbEntity
  8
0
  6
CONTINUOUS
 62
          15
100
AcDbCircle
 10
-8.699996948242
 20
21.524993896484
 30
0.0
 40
0.300000011921
100
AcDbArc
 50
0.0
 51
90.000002504478
  0
ARC
  5
291
100
AcDbEntity
  8
0
  6
CONTINUOUS
 62
          15
100
AcDbCircle
 10
-8.699996948242
 20
14.024993896484
 30
0.0
 40
0.300000011921
100
AcDbArc
 50
269.999997495521
 51
0.0
  0
ARC
  5
292
100
AcDbEntity
  8
0
  6
CONTINUOUS
 62
          15
100
AcDbCircle
 10
-11.999992370605
 20
14.024993896484
 30
0.0
 40
0.300000011921
100
AcDbArc
 50
180.000008651422
 51
269.999997495521
  0
LINE
  5
293
100
AcDbEntity
  8
0
  6
CONTINUOUS
 62
          15
100
AcDbLine
 10
-7.049995422363
 20
14.024993896484
 30
0.0
 11
-7.049995422363
 21
21.524993896484
 31
0.0
  0
LINE
  5
294
100
AcDbEntity
  8
0
  6
CONTINUOUS
 62
          15
100
AcDbLine
 10
-3.149993896484
 20
14.024993896484
 30
0.0
 11
-3.149993896484
 21
21.524993896484
 31
0.0
  0
LINE
  5
295
100
AcDbEntity
  8
0
  6
CONTINUOUS
 62
          15
100
AcDbLine
 10
-6.749992370605
 20
21.824996948242
 30
0.0
 11
-3.449996948242
 21
21.824996948242
 31
0.0
  0
LINE
  5
296
100
AcDbEntity
  8
0
  6
CONTINUOUS
 62
          15
100
AcDbLine
 10
-6.749992370605
 20
13.724990844727
 30
0.0
 11
-3.449996948242
 21
13.724990844727
 31
0.0
  0
ARC
  5
297
100
AcDbEntity
  8
0
  6
CONTINUOUS
 62
          15
100
AcDbCircle
 10
-6.749992370605
 20
21.524993896484
 30
0.0
 40
0.300000011921
100
AcDbArc
 50
90.000002504478
 51
180.000008651422
  0
ARC
  5
298
100
AcDbEntity
  8
0
  6
CONTINUOUS
 62
          15
100
AcDbCircle
 10
-3.449996948242
 20
21.524993896484
 30
0.0
 40
0.300000011921
100
AcDbArc
 50
0.0
 51
90.000002504478
  0
ARC
  5
299
100
AcDbEntity
  8
0
  6
CONTINUOUS
 62
          15
100
AcDbCircle
 10
-3.449996948242
 20
14.024993896484
 30
0.0
 40
0.300000011921
100
AcDbArc
 50
269.999997495521
 51
0.0
  0
ARC
  5
29A
100
AcDbEntity
  8
0
  6
CONTINUOUS
 62
          15
100
AcDbCircle
 10
-6.749992370605
 20
14.024993896484
 30
0.0
 40
0.300000011921
100
AcDbArc
 50
180.000008651422
 51
269.999997495521
  0
LINE
  5
29B
100
AcDbEntity
  8
0
  6
CONTINUOUS
 62
          15
100
AcDbLine
 10
-1.799995422363
 20
14.024993896484
 30
0.0
 11
-1.799995422363
 21
21.524993896484
 31
0.0
  0
LINE
  5
29C
100
AcDbEntity
  8
0
  6
CONTINUOUS
 62
          15
100
AcDbLine
 10
2.100006103516
 20
14.024993896484
 30
0.0
 11
2.100006103516
 21
21.524993896484
 31
0.0
  0
LINE
  5
29D
100
AcDbEntity
  8
0
  6
CONTINUOUS
 62
          15
100
AcDbLine
 10
-1.499992370605
 20
21.824996948242
 30
0.0
 11
1.800003051758
 21
21.824996948242
 31
0.0
  0
LINE
  5
29E
100
AcDbEntity
  8
0
  6
CONTINUOUS
 62
          15
100
AcDbLine
 10
-1.499992370605
 20
13.724990844727
 30
0.0
 11
1.800003051758
 21
13.724990844727
 31
0.0
  0
ARC
  5
29F
100
AcDbEntity
  8
0
  6
CONTINUOUS
 62
          15
100
AcDbCircle
 10
-1.499992370605
 20
21.524993896484
 30
0.0
 40
0.300000011921
100
AcDbArc
 50
90.000002504478
 51
180.000008651422
  0
ARC
  5
2A0
100
AcDbEntity
  8
0
  6
CONTINUOUS
 62
          15
100
AcDbCircle
 10
1.800003051758
 20
21.524993896484
 30
0.0
 40
0.300000011921
100
AcDbArc
 50
0.0
 51
90.000002504478
  0
ARC
  5
2A1
100
AcDbEntity
  8
0
  6
CONTINUOUS
 62
          15
100
AcDbCircle
 10
1.800003051758
 20
14.024993896484
 30
0.0
 40
0.300000011921
100
AcDbArc
 50
269.999997495521
 51
0.0
  0
ARC
  5
2A2
100
AcDbEntity
  8
0
  6
CONTINUOUS
 62
          15
100
AcDbCircle
 10
-1.499992370605
 20
14.024993896484
 30
0.0
 40
0.300000011921
100
AcDbArc
 50
180.000008651422
 51
269.999997495521
  0
LINE
  5
2A3
100
AcDbEntity
  8
0
  6
CONTINUOUS
 62
          15
100
AcDbLine
 10
3.450012207031
 20
14.024993896484
 30
0.0
 11
3.450012207031
 21
21.524993896484
 31
0.0
  0
LINE
  5
2A4
100
AcDbEntity
  8
0
  6
CONTINUOUS
 62
          15
100
AcDbLine
 10
7.350006103516
 20
14.024993896484
 30
0.0
 11
7.350006103516
 21
21.524993896484
 31
0.0
  0
LINE
  5
2A5
100
AcDbEntity
  8
0
  6
CONTINUOUS
 62
          15
100
AcDbLine
 10
3.75
 20
21.824996948242
 30
0.0
 11
7.050003051758
 21
21.824996948242
 31
0.0
  0
LINE
  5
2A6
100
AcDbEntity
  8
0
  6
CONTINUOUS
 62
          15
100
AcDbLine
 10
3.75
 20
13.724990844727
 30
0.0
 11
7.050003051758
 21
13.724990844727
 31
0.0
  0
ARC
  5
2A7
100
AcDbEntity
  8
0
  6
CONTINUOUS
 62
          15
100
AcDbCircle
 10
3.75
 20
21.524993896484
 30
0.0
 40
0.300000011921
100
AcDbArc
 50
90.000002504478
 51
180.000008651422
  0
ARC
  5
2A8
100
AcDbEntity
  8
0
  6
CONTINUOUS
 62
          15
100
AcDbCircle
 10
7.050003051758
 20
21.524993896484
 30
0.0
 40
0.300000011921
100
AcDbArc
 50
0.0
 51
90.000002504478
  0
ARC
  5
2A9
100
AcDbEntity
  8
0
  6
CONTINUOUS
 62
          15
100
AcDbCircle
 10
7.050003051758
 20
14.024993896484
 30
0.0
 40
0.300000011921
100
AcDbArc
 50
269.999997495521
 51
0.0
  0
ARC
  5
2AA
100
AcDbEntity
  8
0
  6
CONTINUOUS
 62
          15
100
AcDbCircle
 10
3.75
 20
14.024993896484
 30
0.0
 40
0.300000011921
100
AcDbArc
 50
180.000008651422
 51
269.999997495521
  0
LINE
  5
2AB
100
AcDbEntity
  8
0
  6
CONTINUOUS
 62
          15
100
AcDbLine
 10
8.700012207031
 20
14.024993896484
 30
0.0
 11
8.700012207031
 21
21.524993896484
 31
0.0
  0
LINE
  5
2AC
100
AcDbEntity
  8
0
  6
CONTINUOUS
 62
          15
100
AcDbLine
 10
12.600006103516
 20
14.024993896484
 30
0.0
 11
12.600006103516
 21
21.524993896484
 31
0.0
  0
LINE
  5
2AD
100
AcDbEntity
  8
0
  6
CONTINUOUS
 62
          15
100
AcDbLine
 10
9.0
 20
21.824996948242
 30
0.0
 11
12.300003051758
 21
21.824996948242
 31
0.0
  0
LINE
  5
2AE
100
AcDbEntity
  8
0
  6
CONTINUOUS
 62
          15
100
AcDbLine
 10
9.0
 20
13.724990844727
 30
0.0
 11
12.300003051758
 21
13.724990844727
 31
0.0
  0
ARC
  5
2AF
100
AcDbEntity
  8
0
  6
CONTINUOUS
 62
          15
100
AcDbCircle
 10
9.0
 20
21.524993896484
 30
0.0
 40
0.300000011921
100
AcDbArc
 50
90.000002504478
 51
180.000008651422
  0
ARC
  5
2B0
100
AcDbEntity
  8
0
  6
CONTINUOUS
 62
          15
100
AcDbCircle
 10
12.300003051758
 20
21.524993896484
 30
0.0
 40
0.300000011921
100
AcDbArc
 50
0.0
 51
90.000002504478
  0
ARC
  5
2B1
100
AcDbEntity
  8
0
  6
CONTINUOUS
 62
          15
100
AcDbCircle
 10
12.300003051758
 20
14.024993896484
 30
0.0
 40
0.300000011921
100
AcDbArc
 50
269.999997495521
 51
0.0
  0
ARC
  5
2B2
100
AcDbEntity
  8
0
  6
CONTINUOUS
 62
          15
100
AcDbCircle
 10
9.0
 20
14.024993896484
 30
0.0
 40
0.300000011921
100
AcDbArc
 50
180.000008651422
 51
269.999997495521
  0
LINE
  5
2B3
100
AcDbEntity
  8
0
  6
CONTINUOUS
 62
          15
100
AcDbLine
 10
13.950012207031
 20
14.024993896484
 30
0.0
 11
13.950012207031
 21
21.524993896484
 31
0.0
  0
LINE
  5
2B4
100
AcDbEntity
  8
0
  6
CONTINUOUS
 62
          15
100
AcDbLine
 10
17.850006103516
 20
14.024993896484
 30
0.0
 11
17.850006103516
 21
21.524993896484
 31
0.0
  0
LINE
  5
2B5
100
AcDbEntity
  8
0
  6
CONTINUOUS
 62
          15
100
AcDbLine
 10
14.25
 20
21.824996948242
 30
0.0
 11
17.550003051758
 21
21.824996948242
 31
0.0
  0
LINE
  5
2B6
100
AcDbEntity
  8
0
  6
CONTINUOUS
 62
          15
100
AcDbLine
 10
14.25
 20
13.724990844727
 30
0.0
 11
17.550003051758
 21
13.724990844727
 31
0.0
  0
ARC
  5
2B7
100
AcDbEntity
  8
0
  6
CONTINUOUS
 62
          15
100
AcDbCircle
 10
14.25
 20
21.524993896484
 30
0.0
 40
0.300000011921
100
AcDbArc
 50
90.000002504478
 51
180.000008651422
  0
ARC
  5
2B8
100
AcDbEntity
  8
0
  6
CONTINUOUS
 62
          15
100
AcDbCircle
 10
17.550003051758
 20
21.524993896484
 30
0.0
 40
0.300000011921
100
AcDbArc
 50
0.0
 51
90.000002504478
  0
ARC
  5
2B9
100
AcDbEntity
  8
0
  6
CONTINUOUS
 62
          15
100
AcDbCircle
 10
17.550003051758
 20
14.024993896484
 30
0.0
 40
0.300000011921
100
AcDbArc
 50
269.999997495521
 51
0.0
  0
ARC
  5
2BA
100
AcDbEntity
  8
0
  6
CONTINUOUS
 62
          15
100
AcDbCircle
 10
14.25
 20
14.024993896484
 30
0.0
 40
0.300000011921
100
AcDbArc
 50
180.000008651422
 51
269.999997495521
  0
LINE
  5
2BB
100
AcDbEntity
  8
0
  6
CONTINUOUS
 62
          15
100
AcDbLine
 10
18.600006103516
 20
12.375
 30
0.0
 11
18.600006103516
 21
22.424987792969
 31
0.0
  0
LINE
  5
2BC
100
AcDbEntity
  8
0
  6
CONTINUOUS
 62
          15
100
AcDbLine
 10
18.600006103516
 20
4.949996948242
 30
0.0
 11
18.600006103516
 21
10.199996948242
 31
0.0
  0
LINE
  5
2BD
100
AcDbEntity
  8
0
  6
CONTINUOUS
 62
          15
100
AcDbLine
 10
-27.337493896484
 20
3.75
 30
0.0
 11
-27.337493896484
 21
34.800003051758
 31
0.0
  0
LINE
  5
2BE
100
AcDbEntity
  8
0
  6
CONTINUOUS
 62
          15
100
AcDbLine
 10
-27.337493896484
 20
34.800003051758
 30
0.0
 11
19.837509155273
 21
34.800003051758
 31
0.0
  0
LINE
  5
2BF
100
AcDbEntity
  8
0
  6
CONTINUOUS
 62
          15
100
AcDbLine
 10
-23.587493896484
 20
31.049987792969
 30
0.0
 11
-27.337493896484
 21
34.800003051758
 31
0.0
  0
LINE
  5
2C0
100
AcDbEntity
  8
0
  6
CONTINUOUS
 62
          15
100
AcDbLine
 10
-23.587493896484
 20
0.0
 30
0.0
 11
-27.337493896484
 21
3.75
 31
0.0
  0
LINE
  5
2C1
100
AcDbEntity
  8
0
  6
CONTINUOUS
 62
          15
100
AcDbLine
 10
19.837509155273
 20
34.800003051758
 30
0.0
 11
23.587501525879
 21
31.049987792969
 31
0.0
  0
TEXT
  5
2C2
100
AcDbEntity
  8
0
  6
CONTINUOUS
 62
          15
100
AcDbText
 10
-12.438339233398
 20
6.890955194831
 30
0.0
 40
0.800000011921
  1
TEST
 41
1.000000018626
  7
ROMAND
100
AcDbText
  0
TEXT
  5
2C3
100
AcDbEntity
  8
0
  6
CONTINUOUS
 62
          15
100
AcDbText
 10
-12.382957458496
 20
8.004892572761
 30
0.0
 40
0.800000011921
  1
MUTE
 41
1.000000018626
  7
ROMAND
100
AcDbText
  0
CIRCLE
  5
2C4
100
AcDbEntity
  8
0
  6
CONTINUOUS
 62
          15
100
AcDbCircle
 10
-11.008277893066
 20
9.888641357422
 30
0.0
 40
0.5
  0
TEXT
  5
2C5
100
AcDbEntity
  8
0
  6
CONTINUOUS
 62
          15
100
AcDbText
 10
-5.975006103516
 20
7.046908587217
 30
0.0
 40
1.5
  1
SA-6
 41
0.933333337307
  7
ROMAND
100
AcDbText
  0
ENDBLK
  5
2C6
100
AcDbEntity
  8
0
  6
BYBLOCK
 62
           0
100
AcDbBlockEnd
  0
BLOCK
  5
2C7
100
AcDbEntity
  8
0
100
AcDbBlockBegin
  2
CABLEREQ_4
 70
          64
 10
0.0
 20
0.0
 30
0.0
  3
CABLEREQ_4
  1

  0
TEXT
  5
2C8
100
AcDbEntity
  8
0
  6
CONTINUOUS
 62
          15
100
AcDbText
 10
-0.147918701172
 20
9.905474871397
 30
0.0
 40
1.5
  1
ALL SIGNAL CABLE TO BE A MINIMUM
 41
1.133333365122
  7
GOTHICI
100
AcDbText
  0
TEXT
  5
2C9
100
AcDbEntity
  8
0
  6
CONTINUOUS
 62
          15
100
AcDbText
 10
-0.147918701172
 20
7.50547477603
 30
0.0
 40
1.5
  1
OF 0.5 mm sq SCREENED / S.W.A /
 41
1.133333365122
  7
GOTHICI
100
AcDbText
  0
TEXT
  5
2CA
100
AcDbEntity
  8
0
  6
CONTINUOUS
 62
          15
100
AcDbText
 10
-0.147918701172
 20
5.105474680662
 30
0.0
 40
1.5
  1
OR IN METAL CONDUIT.
 41
1.133333365122
  7
GOTHICI
100
AcDbText
  0
TEXT
  5
2CB
100
AcDbEntity
  8
0
  6
CONTINUOUS
 62
          15
100
AcDbText
 10
-0.147918701172
 20
2.705474585295
 30
0.0
 40
1.5
  1
ALL JUNCTION BOXES MUST HAVE
 41
1.133333365122
  7
GOTHICI
100
AcDbText
  0
TEXT
  5
2CC
100
AcDbEntity
  8
0
  6
CONTINUOUS
 62
          15
100
AcDbText
 10
-0.147918701172
 20
0.305474489927
 30
0.0
 40
1.5
  1
THE SCREENS CONNECTED THROUGH
 41
1.133333365122
  7
GOTHICI
100
AcDbText
  0
TEXT
  5
2CD
100
AcDbEntity
  8
0
  6
CONTINUOUS
 62
          15
100
AcDbText
 10
-0.147918701172
 20
14.731797799468
 30
0.0
 40
2.0
  1
NOTE
  7
GOTHICI
100
AcDbText
  0
ENDBLK
  5
2CE
100
AcDbEntity
  8
0
  6
BYBLOCK
 62
           0
100
AcDbBlockEnd
  0
BLOCK
  5
2CF
100
AcDbEntity
  8
0
100
AcDbBlockBegin
  2
TB2_5
 70
          64
 10
0.0
 20
0.0
 30
0.0
  3
TB2_5
  1

  0
LINE
  5
2D0
100
AcDbEntity
  8
0
  6
CONTINUOUS
 62
          15
100
AcDbLine
 10
-1.936157226563
 20
-21.10546875
 30
0.0
 11
9.086837768555
 21
-21.10546875
 31
0.0
  0
LINE
  5
2D1
100
AcDbEntity
  8
0
  6
CONTINUOUS
 62
          15
100
AcDbLine
 10
18.713150024414
 20
-41.228603363037
 30
0.0
 11
20.713150024414
 21
-41.228603363037
 31
0.0
  0
LINE
  5
2D2
100
AcDbEntity
  8
0
  6
CONTINUOUS
 62
          15
100
AcDbLine
 10
11.313842773438
 20
-41.228603363037
 30
0.0
 11
13.713150024414
 21
-41.228603363037
 31
0.0
  0
LINE
  5
2D3
100
AcDbEntity
  8
0
  6
CONTINUOUS
 62
          15
100
AcDbLine
 10
4.563842773438
 20
-41.228603363037
 30
0.0
 11
11.313842773438
 21
-41.228603363037
 31
0.0
  0
LINE
  5
2D4
100
AcDbEntity
  8
0
  6
CONTINUOUS
 62
          15
100
AcDbLine
 10
18.713150024414
 20
-41.228603363037
 30
0.0
 11
18.713150024414
 21
-39.228602409363
 31
0.0
  0
LINE
  5
2D5
100
AcDbEntity
  8
0
  6
CONTINUOUS
 62
          15
100
AcDbLine
 10
13.713150024414
 20
-41.228603363037
 30
0.0
 11
19.213150024414
 21
-39.228602409363
 31
0.0
  0
LINE
  5
2D6
100
AcDbEntity
  8
0
  6
CONTINUOUS
 62
          15
100
AcDbLine
 10
2.313842773438
 20
-46.2286028862
 30
0.0
 11
22.188201904297
 21
-46.2286028862
 31
0.0
  0
LINE
  5
2D7
100
AcDbEntity
  8
0
  6
CONTINUOUS
 62
          15
100
AcDbLine
 10
-1.936157226563
 20
-21.10546875
 30
0.0
 11
-1.936157226563
 21
-0.117248535156
 31
0.0
  0
LINE
  5
2D8
100
AcDbEntity
  8
0
  6
CONTINUOUS
 62
          15
100
AcDbLine
 10
4.563842773438
 20
-41.228603363037
 30
0.0
 11
4.563842773438
 21
-21.10546875
 31
0.0
  0
LINE
  5
2D9
100
AcDbEntity
  8
0
  6
CONTINUOUS
 62
          15
100
AcDbLine
 10
2.313842773438
 20
-46.2286028862
 30
0.0
 11
2.313842773438
 21
-21.10546875
 31
0.0
  0
LINE
  5
2DA
100
AcDbEntity
  8
0
  6
CONTINUOUS
 62
          15
100
AcDbLine
 10
22.188201904297
 20
-46.2286028862
 30
0.0
 11
22.188201904297
 21
-41.228603363037
 31
0.0
  0
LINE
  5
2DB
100
AcDbEntity
  8
0
  6
CONTINUOUS
 62
          15
100
AcDbLine
 10
20.713150024414
 20
-41.228603363037
 30
0.0
 11
22.188201904297
 21
-41.228603363037
 31
0.0
  0
LINE
  5
2DC
100
AcDbEntity
  8
0
  6
CONTINUOUS
 62
          15
100
AcDbLine
 10
9.086837768555
 20
-21.10546875
 30
0.0
 11
9.086837768555
 21
-0.117248535156
 31
0.0
  0
LINE
  5
2DD
100
AcDbEntity
  8
0
  6
CONTINUOUS
 62
          15
100
AcDbLine
 10
-1.936157226563
 20
-0.117248535156
 30
0.0
 11
9.086837768555
 21
-0.117248535156
 31
0.0
  0
LINE
  5
2DE
100
AcDbEntity
  8
0
  6
CONTINUOUS
 62
          15
100
AcDbLine
 10
-0.879516601563
 20
-21.10546875
 30
0.0
 11
-0.879516601563
 21
-13.442077636719
 31
0.0
  0
LINE
  5
2DF
100
AcDbEntity
  8
0
  6
CONTINUOUS
 62
          15
100
AcDbLine
 10
7.969787597656
 20
-21.10546875
 30
0.0
 11
7.969787597656
 21
-13.442077636719
 31
0.0
  0
LINE
  5
2E0
100
AcDbEntity
  8
0
  6
CONTINUOUS
 62
          15
100
AcDbLine
 10
5.757461547852
 20
-18.646366119385
 30
0.0
 11
5.757461547852
 21
-16.442077636719
 31
0.0
  0
LINE
  5
2E1
100
AcDbEntity
  8
0
  6
CONTINUOUS
 62
          15
100
AcDbLine
 10
3.499984741211
 20
-18.646366119385
 30
0.0
 11
3.499984741211
 21
-16.442077636719
 31
0.0
  0
TEXT
  5
2E2
100
AcDbEntity
  8
0
  6
CONTINUOUS
 62
          15
100
AcDbText
 10
-0.233978271484
 20
-12.804209128022
 30
0.0
 40
2.0
  1
TB2
 41
1.400000035763
  7
ROMANT
100
AcDbText
  0
TEXT
  5
2E3
100
AcDbEntity
  8
0
  6
CONTINUOUS
 62
          15
100
AcDbText
 10
-0.958419799805
 20
-8.818132683635
 30
0.0
 40
0.819999992847
  1
TERMINATION
 41
1.024390239027
  7
ROMANT
100
AcDbText
  0
TEXT
  5
2E4
100
AcDbEntity
  8
0
  6
CONTINUOUS
 62
          15
100
AcDbText
 10
1.577117919922
 20
-10.050195977092
 30
0.0
 40
0.819999992847
  1
BOARD
 41
1.024390239027
  7
ROMANT
100
AcDbText
  0
LINE
  5
2E5
100
AcDbEntity
  8
0
  6
CONTINUOUS
 62
          15
100
AcDbLine
 10
-0.879516601563
 20
-7.468193054199
 30
0.0
 11
-0.879516601563
 21
-0.117248535156
 31
0.0
  0
LINE
  5
2E6
100
AcDbEntity
  8
0
  6
CONTINUOUS
 62
          15
100
AcDbLine
 10
7.969787597656
 20
-7.468193054199
 30
0.0
 11
7.969787597656
 21
-0.117248535156
 31
0.0
  0
LINE
  5
2E7
100
AcDbEntity
  8
0
  6
CONTINUOUS
 62
          15
100
AcDbLine
 10
5.757461547852
 20
-4.797248840332
 30
0.0
 11
5.757461547852
 21
-2.556716918945
 31
0.0
  0
LINE
  5
2E8
100
AcDbEntity
  8
0
  6
CONTINUOUS
 62
          15
100
AcDbLine
 10
3.499984741211
 20
-4.797248840332
 30
0.0
 11
3.499984741211
 21
-2.556716918945
 31
0.0
  0
TEXT
  5
2E9
100
AcDbEntity
  8
0
  6
CONTINUOUS
 62
          15
100
AcDbText
 10
-0.696533203125
 20
-20.234551072121
 30
0.0
 40
1.200000047684
  1
TO PLANT
 41
0.916666625275
  7
ROMANT
100
AcDbText
  0
TEXT
  5
2EA
100
AcDbEntity
  8
0
  6
CONTINUOUS
 62
          15
100
AcDbText
 10
-0.689270019531
 20
-2.157028794289
 30
0.0
 40
1.200000047684
  1
TO ALARM
 41
0.916666625275
  7
ROMANT
100
AcDbText
  0
TEXT
  5
2EB
100
AcDbEntity
  8
0
  6
CONTINUOUS
 62
          15
100
AcDbText
 10
0.556976318359
 20
-48.840829089284
 30
0.0
 40
1.350000023842
  1
PRESSURE SWITCHES
 41
1.037037001062
  7
GOTHICI
100
AcDbText
  0
TEXT
  5
2EC
100
AcDbEntity
  8
0
  6
CONTINUOUS
 62
          15
100
AcDbText
 10
30.117233157158
 20
-35.655184471607
 30
0.0
 40
1.350000023842
  1

 41
1.037037001062
  7
GOTHICI
100
AcDbText
  0
TEXT
  5
2ED
100
AcDbEntity
  8
0
  6
CONTINUOUS
 62
          15
100
AcDbText
 10
30.117233157158
 20
-37.545184504986
 30
0.0
 40
1.350000023842
  1

 41
1.037037001062
  7
GOTHICI
100
AcDbText
  0
TEXT
  5
2EE
100
AcDbEntity
  8
0
  6
CONTINUOUS
 62
          15
100
AcDbText
 10
30.117233157158
 20
-39.435184538364
 30
0.0
 40
1.350000023842
  1

 41
1.037037001062
  7
GOTHICI
100
AcDbText
  0
TEXT
  5
2EF
100
AcDbEntity
  8
0
  6
CONTINUOUS
 62
          15
100
AcDbText
 10
21.717232942581
 20
-41.325184571743
 30
0.0
 40
1.350000023842
  1
VACUMM
 41
1.037037001062
  7
GOTHICI
100
AcDbText
  0
TEXT
  5
2F0
100
AcDbEntity
  8
0
  6
CONTINUOUS
 62
          15
100
AcDbText
 10
16.11723279953
 20
-43.215184605122
 30
0.0
 40
1.350000023842
  1
LOW VACUUM
 41
1.037037001062
  7
GOTHICI
100
AcDbText
  0
TEXT
  5
2F1
100
AcDbEntity
  8
0
  6
CONTINUOUS
 62
          15
100
AcDbText
 10
0.766708374023
 20
-4.417632460594
 30
0.0
 40
1.299999952316
  1
C
 41
0.961538496807
  7
ROMANT
100
AcDbText
  0
TEXT
  5
2F2
100
AcDbEntity
  8
0
  6
CONTINUOUS
 62
          15
100
AcDbText
 10
4.196044921875
 20
-4.417632460594
 30
0.0
 40
1.299999952316
  1
1
 41
0.961538496807
  7
ROMANT
100
AcDbText
  0
TEXT
  5
2F3
100
AcDbEntity
  8
0
  6
CONTINUOUS
 62
          15
100
AcDbText
 10
6.421478271484
 20
-4.417632460594
 30
0.0
 40
1.299999952316
  1
2
 41
0.961538496807
  7
ROMANT
100
AcDbText
  0
TEXT
  5
2F4
100
AcDbEntity
  8
0
  6
CONTINUOUS
 62
          15
100
AcDbText
 10
0.766708374023
 20
-18.196074843407
 30
0.0
 40
1.299999952316
  1
C
 41
0.961538496807
  7
ROMANT
100
AcDbText
  0
TEXT
  5
2F5
100
AcDbEntity
  8
0
  6
CONTINUOUS
 62
          15
100
AcDbText
 10
4.196044921875
 20
-18.196074843407
 30
0.0
 40
1.299999952316
  1
1
 41
0.961538496807
  7
ROMANT
100
AcDbText
  0
TEXT
  5
2F6
100
AcDbEntity
  8
0
  6
CONTINUOUS
 62
          15
100
AcDbText
 10
6.421478271484
 20
-18.196074843407
 30
0.0
 40
1.299999952316
  1
2
 41
0.961538496807
  7
ROMANT
100
AcDbText
  0
LINE
  5
2F7
100
AcDbEntity
  8
0
  6
CONTINUOUS
 62
          15
100
AcDbLine
 10
-0.879516601563
 20
-13.442077636719
 30
0.0
 11
7.969787597656
 21
-13.442077636719
 31
0.0
  0
LINE
  5
2F8
100
AcDbEntity
  8
0
  6
CONTINUOUS
 62
          15
100
AcDbLine
 10
-0.879516601563
 20
-16.442077636719
 30
0.0
 11
7.969787597656
 21
-16.442077636719
 31
0.0
  0
LINE
  5
2F9
100
AcDbEntity
  8
0
  6
CONTINUOUS
 62
          15
100
AcDbLine
 10
-0.879516601563
 20
-7.468193054199
 30
0.0
 11
7.969787597656
 21
-7.468193054199
 31
0.0
  0
CIRCLE
  5
2FA
100
AcDbEntity
  8
0
  6
CONTINUOUS
 62
          15
100
AcDbCircle
 10
6.813842773438
 20
-14.995449066162
 30
0.0
 40
0.600000023842
  0
LINE
  5
2FB
100
AcDbEntity
  8
0
  6
CONTINUOUS
 62
          15
100
AcDbLine
 10
7.238098144531
 20
-15.41971206665
 30
0.0
 11
6.389572143555
 21
-14.571186065674
 31
0.0
  0
CIRCLE
  5
2FC
100
AcDbEntity
  8
0
  6
CONTINUOUS
 62
          15
100
AcDbCircle
 10
4.563842773438
 20
-14.995449066162
 30
0.0
 40
0.600000023842
  0
LINE
  5
2FD
100
AcDbEntity
  8
0
  6
CONTINUOUS
 62
          15
100
AcDbLine
 10
4.988098144531
 20
-15.41971206665
 30
0.0
 11
4.139572143555
 21
-14.571186065674
 31
0.0
  0
CIRCLE
  5
2FE
100
AcDbEntity
  8
0
  6
CONTINUOUS
 62
          15
100
AcDbCircle
 10
2.313842773438
 20
-14.995449066162
 30
0.0
 40
0.600000023842
  0
LINE
  5
2FF
100
AcDbEntity
  8
0
  6
CONTINUOUS
 62
          15
100
AcDbLine
 10
2.738098144531
 20
-15.41971206665
 30
0.0
 11
1.889572143555
 21
-14.571186065674
 31
0.0
  0
CIRCLE
  5
300
100
AcDbEntity
  8
0
  6
CONTINUOUS
 62
          15
100
AcDbCircle
 10
0.063842773438
 20
-14.995449066162
 30
0.0
 40
0.600000023842
  0
LINE
  5
301
100
AcDbEntity
  8
0
  6
CONTINUOUS
 62
          15
100
AcDbLine
 10
0.488098144531
 20
-15.41971206665
 30
0.0
 11
-0.360427856445
 21
-14.571186065674
 31
0.0
  0
LINE
  5
302
100
AcDbEntity
  8
0
  6
CONTINUOUS
 62
          15
100
AcDbLine
 10
-0.879516601563
 20
-18.646366119385
 30
0.0
 11
7.969787597656
 21
-18.646366119385
 31
0.0
  0
LINE
  5
303
100
AcDbEntity
  8
0
  6
CONTINUOUS
 62
          15
100
AcDbLine
 10
-0.879516601563
 20
-2.556716918945
 30
0.0
 11
7.969787597656
 21
-2.556716918945
 31
0.0
  0
LINE
  5
304
100
AcDbEntity
  8
0
  6
CONTINUOUS
 62
          15
100
AcDbLine
 10
-0.879516601563
 20
-4.797248840332
 30
0.0
 11
7.969787597656
 21
-4.797248840332
 31
0.0
  0
CIRCLE
  5
305
100
AcDbEntity
  8
0
  6
CONTINUOUS
 62
          15
100
AcDbCircle
 10
6.813842773438
 20
-6.069114685059
 30
0.0
 40
0.600000023842
  0
LINE
  5
306
100
AcDbEntity
  8
0
  6
CONTINUOUS
 62
          15
100
AcDbLine
 10
7.238098144531
 20
-6.493377685547
 30
0.0
 11
6.389572143555
 21
-5.64485168457
 31
0.0
  0
CIRCLE
  5
307
100
AcDbEntity
  8
0
  6
CONTINUOUS
 62
          15
100
AcDbCircle
 10
4.563842773438
 20
-6.069114685059
 30
0.0
 40
0.600000023842
  0
LINE
  5
308
100
AcDbEntity
  8
0
  6
CONTINUOUS
 62
          15
100
AcDbLine
 10
4.988098144531
 20
-6.493377685547
 30
0.0
 11
4.139572143555
 21
-5.64485168457
 31
0.0
  0
CIRCLE
  5
309
100
AcDbEntity
  8
0
  6
CONTINUOUS
 62
          15
100
AcDbCircle
 10
2.313842773438
 20
-6.069114685059
 30
0.0
 40
0.600000023842
  0
LINE
  5
30A
100
AcDbEntity
  8
0
  6
CONTINUOUS
 62
          15
100
AcDbLine
 10
2.738098144531
 20
-6.493377685547
 30
0.0
 11
1.889572143555
 21
-5.64485168457
 31
0.0
  0
CIRCLE
  5
30B
100
AcDbEntity
  8
0
  6
CONTINUOUS
 62
          15
100
AcDbCircle
 10
0.063842773438
 20
-6.069114685059
 30
0.0
 40
0.600000023842
  0
LINE
  5
30C
100
AcDbEntity
  8
0
  6
CONTINUOUS
 62
          15
100
AcDbLine
 10
0.488098144531
 20
-6.493377685547
 30
0.0
 11
-0.360427856445
 21
-5.64485168457
 31
0.0
  0
ENDBLK
  5
30D
100
AcDbEntity
  8
0
  6
BYBLOCK
 62
           0
100
AcDbBlockEnd
  0
BLOCK
  5
30E
100
AcDbEntity
  8
0
100
AcDbBlockBegin
  2
RES_6
 70
          64
 10
0.0
 20
0.0
 30
0.0
  3
RES_6
  1

  0
LINE
  5
30F
100
AcDbEntity
  8
0
  6
CONTINUOUS
 62
          15
100
AcDbLine
 10
0.0
 20
-12.204154968262
 30
0.0
 11
0.0
 21
-11.032264709473
 31
0.0
  0
LINE
  5
310
100
AcDbEntity
  8
0
  6
CONTINUOUS
 62
          15
100
AcDbLine
 10
-1.0
 20
-10.532264709473
 30
0.0
 11
-1.0
 21
-5.713249206543
 31
0.0
  0
LINE
  5
311
100
AcDbEntity
  8
0
  6
CONTINUOUS
 62
          15
100
AcDbLine
 10
1.0
 20
-10.532264709473
 30
0.0
 11
1.0
 21
-5.713249206543
 31
0.0
  0
LINE
  5
312
100
AcDbEntity
  8
0
  6
CONTINUOUS
 62
          15
100
AcDbLine
 10
-0.5
 20
-5.213249206543
 30
0.0
 11
0.5
 21
-5.213249206543
 31
0.0
  0
LINE
  5
313
100
AcDbEntity
  8
0
  6
CONTINUOUS
 62
          15
100
AcDbLine
 10
-0.5
 20
-11.032264709473
 30
0.0
 11
0.5
 21
-11.032264709473
 31
0.0
  0
LINE
  5
314
100
AcDbEntity
  8
0
  6
CONTINUOUS
 62
          15
100
AcDbLine
 10
-6.120803833008
 20
-12.204154968262
 30
0.0
 11
0.0
 21
-12.204154968262
 31
0.0
  0
LINE
  5
315
100
AcDbEntity
  8
0
  6
CONTINUOUS
 62
          15
100
AcDbLine
 10
-1.0
 20
-6.748825073242
 30
0.0
 11
1.0
 21
-6.748825073242
 31
0.0
  0
LINE
  5
316
100
AcDbEntity
  8
0
  6
CONTINUOUS
 62
          15
100
AcDbLine
 10
-1.0
 20
-7.637840270996
 30
0.0
 11
1.0
 21
-7.637840270996
 31
0.0
  0
LINE
  5
317
100
AcDbEntity
  8
0
  6
CONTINUOUS
 62
          15
100
AcDbLine
 10
-1.0
 20
-8.486450195313
 30
0.0
 11
1.0
 21
-8.486450195313
 31
0.0
  0
LINE
  5
318
100
AcDbEntity
  8
0
  6
CONTINUOUS
 62
          15
100
AcDbLine
 10
-1.0
 20
-9.375465393066
 30
0.0
 11
1.0
 21
-9.375465393066
 31
0.0
  0
ARC
  5
319
100
AcDbEntity
  8
0
  6
CONTINUOUS
 62
          15
100
AcDbCircle
 10
-0.5
 20
-5.713249206543
 30
0.0
 40
0.5
100
AcDbArc
 50
90.000002504478
 51
180.000005008956
  0
ARC
  5
31A
100
AcDbEntity
  8
0
  6
CONTINUOUS
 62
          15
100
AcDbCircle
 10
0.5
 20
-5.713249206543
 30
0.0
 40
0.5
100
AcDbArc
 50
0.0
 51
90.000002504478
  0
ARC
  5
31B
100
AcDbEntity
  8
0
  6
CONTINUOUS
 62
          15
100
AcDbCircle
 10
0.5
 20
-10.532264709473
 30
0.0
 40
0.5
100
AcDbArc
 50
269.999997495521
 51
0.0
  0
ARC
  5
31C
100
AcDbEntity
  8
0
  6
CONTINUOUS
 62
          15
100
AcDbCircle
 10
-0.5
 20
-10.532264709473
 30
0.0
 40
0.5
100
AcDbArc
 50
180.000005008956
 51
269.999997495521
  0
LINE
  5
31D
100
AcDbEntity
  8
0
  6
CONTINUOUS
 62
          15
100
AcDbLine
 10
0.0
 20
-5.213249206543
 30
0.0
 11
0.0
 21
0.0
 31
0.0
  0
ENDBLK
  5
31E
100
AcDbEntity
  8
0
  6
BYBLOCK
 62
           0
100
AcDbBlockEnd
  0
ENDSEC
  0
SECTION
  2
ENTITIES
  0
INSERT
  5
2A
100
AcDbEntity
  8
0
  6
CONTINUOUS
 62
           7
100
AcDbBlockReference
  2
SUPPLY_1
 10
129.18180847168
 20
115.740226745605
 30
0.0
 41
1.5
 42
1.5
 43
1.5
  0
INSERT
  5
2B
100
AcDbEntity
  8
0
  6
CONTINUOUS
 62
           7
100
AcDbBlockReference
  2
SATERM_2
 10
37.125968933105
 20
140.270477294922
 30
0.0
  0
INSERT
  5
2C
100
AcDbEntity
  8
0
  6
CONTINUOUS
 62
           7
100
AcDbBlockReference
  2
SA_3
 10
99.735427856445
 20
151.250717163086
 30
0.0
  0
INSERT
  5
2D
100
AcDbEntity
  8
0
  6
CONTINUOUS
 62
           7
100
AcDbBlockReference
  2
CABLEREQ_4
 10
214.745986938477
 20
96.628364562988
 30
0.0
  0
INSERT
  5
2E
100
AcDbEntity
  8
0
  6
CONTINUOUS
 62
           7
100
AcDbBlockReference
  2
TB2_5
 10
70.564956665039
 20
53.355110168457
 30
0.0
  0
INSERT
  5
2F
100
AcDbEntity
  8
0
  6
CONTINUOUS
 62
           7
100
AcDbBlockReference
  2
RES_6
 10
53.072971343994
 20
107.241470336914
 30
0.0
  0
LINE
  5
30
100
AcDbEntity
  8
0
  6
CONTINUOUS
 62
          15
100
AcDbLine
 10
70.564956665039
 20
53.355110168457
 30
0.0
 11
70.564956665039
 21
64.044158935547
 31
0.0
  0
LINE
  5
31
100
AcDbEntity
  8
0
  6
CONTINUOUS
 62
          15
100
AcDbLine
 10
75.064956665039
 20
53.355110168457
 30
0.0
 11
75.064956665039
 21
66.787322998047
 31
0.0
  0
LINE
  5
32
100
AcDbEntity
  8
0
  6
CONTINUOUS
 62
          15
100
AcDbLine
 10
22.771373748779
 20
109.087982177734
 30
0.0
 11
22.771373748779
 21
131.947402954102
 31
0.0
  0
LINE
  5
33
100
AcDbEntity
  8
0
  6
CONTINUOUS
 62
          15
100
AcDbLine
 10
140.866180419922
 20
134.182037353516
 30
0.0
 11
140.866180419922
 21
109.087982177734
 31
0.0
  0
LINE
  5
34
100
AcDbEntity
  8
0
  6
CONTINUOUS
 62
          15
100
AcDbLine
 10
140.866180419922
 20
109.087982177734
 30
0.0
 11
22.771373748779
 21
109.087982177734
 31
0.0
  0
LINE
  5
35
100
AcDbEntity
  8
0
  6
CONTINUOUS
 62
          15
100
AcDbLine
 10
32.406841278076
 20
131.376480102539
 30
0.0
 11
32.406841278076
 21
127.947479248047
 31
0.0
  0
LINE
  5
36
100
AcDbEntity
  8
0
  6
CONTINUOUS
 62
          15
100
AcDbLine
 10
32.406841278076
 20
131.376480102539
 30
0.0
 11
34.121349334717
 21
131.376480102539
 31
0.0
  0
LINE
  5
37
100
AcDbEntity
  8
0
  6
CONTINUOUS
 62
          15
100
AcDbLine
 10
34.121349334717
 20
127.947479248047
 30
0.0
 11
34.121349334717
 21
131.376480102539
 31
0.0
  0
LINE
  5
38
100
AcDbEntity
  8
0
  6
CONTINUOUS
 62
          15
100
AcDbLine
 10
34.121349334717
 20
127.947479248047
 30
0.0
 11
32.406841278076
 21
127.947479248047
 31
0.0
  0
LINE
  5
39
100
AcDbEntity
  8
0
  6
CONTINUOUS
 62
          15
100
AcDbLine
 10
33.264095306396
 20
127.947479248047
 30
0.0
 11
33.264095306396
 21
127.518852233887
 31
0.0
  0
LINE
  5
3A
100
AcDbEntity
  8
0
  6
CONTINUOUS
 62
          15
100
AcDbLine
 10
33.264095306396
 20
127.947479248047
 30
0.0
 11
33.264095306396
 21
127.947479248047
 31
0.0
  0
LINE
  5
3B
100
AcDbEntity
  8
0
  6
CONTINUOUS
 62
          15
100
AcDbLine
 10
33.264095306396
 20
127.518852233887
 30
0.0
 11
33.264095306396
 21
127.947479248047
 31
0.0
  0
LINE
  5
3C
100
AcDbEntity
  8
0
  6
CONTINUOUS
 62
          15
100
AcDbLine
 10
33.264095306396
 20
127.518852233887
 30
0.0
 11
33.264095306396
 21
127.518852233887
 31
0.0
  0
LINE
  5
3D
100
AcDbEntity
  8
0
  6
CONTINUOUS
 62
          15
100
AcDbLine
 10
33.264095306396
 20
131.805099487305
 30
0.0
 11
33.264095306396
 21
131.376480102539
 31
0.0
  0
LINE
  5
3E
100
AcDbEntity
  8
0
  6
CONTINUOUS
 62
          15
100
AcDbLine
 10
33.264095306396
 20
131.805099487305
 30
0.0
 11
33.264095306396
 21
131.805099487305
 31
0.0
  0
LINE
  5
3F
100
AcDbEntity
  8
0
  6
CONTINUOUS
 62
          15
100
AcDbLine
 10
33.264095306396
 20
131.376480102539
 30
0.0
 11
33.264095306396
 21
131.805099487305
 31
0.0
  0
LINE
  5
40
100
AcDbEntity
  8
0
  6
CONTINUOUS
 62
          15
100
AcDbLine
 10
33.264095306396
 20
131.376480102539
 30
0.0
 11
33.264095306396
 21
131.376480102539
 31
0.0
  0
LINE
  5
41
100
AcDbEntity
  8
0
  6
CONTINUOUS
 62
          15
100
AcDbLine
 10
127.527305603027
 20
133.605331420898
 30
0.0
 11
127.527305603027
 21
139.177658081055
 31
0.0
  0
LINE
  5
42
100
AcDbEntity
  8
0
  6
CONTINUOUS
 62
          15
100
AcDbLine
 10
127.527305603027
 20
133.605331420898
 30
0.0
 11
122.383781433105
 21
133.605331420898
 31
0.0
  0
LINE
  5
43
100
AcDbEntity
  8
0
  6
CONTINUOUS
 62
          15
100
AcDbLine
 10
122.383781433105
 20
140.517684936523
 30
0.0
 11
122.383781433105
 21
133.605331420898
 31
0.0
  0
LINE
  5
44
100
AcDbEntity
  8
0
  6
CONTINUOUS
 62
          15
100
AcDbLine
 10
134.617431640625
 20
116.80322265625
 30
0.0
 11
138.500091552734
 21
116.80322265625
 31
0.0
  0
LINE
  5
45
100
AcDbEntity
  8
0
  6
CONTINUOUS
 62
          15
100
AcDbLine
 10
119.846397399902
 20
116.80322265625
 30
0.0
 11
123.589347839355
 21
116.80322265625
 31
0.0
  0
LINE
  5
46
100
AcDbEntity
  8
0
  6
CONTINUOUS
 62
          15
100
AcDbLine
 10
119.846397399902
 20
116.80322265625
 30
0.0
 11
119.846397399902
 21
141.091339111328
 31
0.0
  0
LINE
  5
47
100
AcDbEntity
  8
0
  6
CONTINUOUS
 62
          15
100
AcDbLine
 10
138.500091552734
 20
135.282180786133
 30
0.0
 11
138.500091552734
 21
116.80322265625
 31
0.0
  0
ARC
  5
48
100
AcDbEntity
  8
0
  6
CONTINUOUS
 62
          15
100
AcDbCircle
 10
129.070343017578
 20
115.94596862793
 30
0.0
 40
6.65225982666
100
AcDbArc
 50
224.999999658377
 51
314.99999874776
  0
LINE
  5
49
100
AcDbEntity
  8
0
  6
CONTINUOUS
 62
          15
100
AcDbLine
 10
118.783378601074
 20
115.740226745605
 30
0.0
 11
139.580230712891
 21
115.740226745605
 31
0.0
  0
LINE
  5
4A
100
AcDbEntity
  8
0
  6
CONTINUOUS
 62
          15
100
AcDbLine
 10
118.783378601074
 20
115.740226745605
 30
0.0
 11
118.783378601074
 21
141.316055297852
 31
0.0
  0
LINE
  5
4B
100
AcDbEntity
  8
0
  6
CONTINUOUS
 62
          15
100
AcDbLine
 10
139.580230712891
 20
134.794891357422
 30
0.0
 11
139.580230712891
 21
115.740226745605
 31
0.0
  0
ARC
  5
4C
100
AcDbEntity
  8
0
  6
CONTINUOUS
 62
          15
100
AcDbCircle
 10
112.98836517334
 20
102.86434173584
 30
0.0
 40
14.144624710083
100
AcDbArc
 50
36.249999585792
 51
65.750003252616
  0
ARC
  5
4D
100
AcDbEntity
  8
0
  6
CONTINUOUS
 62
          15
100
AcDbCircle
 10
144.929473876953
 20
102.86434173584
 30
0.0
 40
13.938884735107
100
AcDbArc
 50
112.499998007956
 51
142.999996010783
  0
LINE
  5
4E
100
AcDbEntity
  8
0
  6
CONTINUOUS
 62
          15
100
AcDbLine
 10
134.008193969727
 20
129.919158935547
 30
0.0
 11
123.926902770996
 21
129.919158935547
 31
0.0
  0
LINE
  5
4F
100
AcDbEntity
  8
0
  6
CONTINUOUS
 62
          15
100
AcDbLine
 10
123.926902770996
 20
121.689552307129
 30
0.0
 11
123.926902770996
 21
129.919158935547
 31
0.0
  0
LINE
  5
50
100
AcDbEntity
  8
0
  6
CONTINUOUS
 62
          15
100
AcDbLine
 10
75.698013305664
 20
144.513244628906
 30
0.0
 11
75.698013305664
 21
140.58332824707
 31
0.0
  0
LINE
  5
51
100
AcDbEntity
  8
0
  6
CONTINUOUS
 62
          15
100
AcDbLine
 10
102.701309204102
 20
140.58332824707
 30
0.0
 11
102.701309204102
 21
143.751327514648
 31
0.0
  0
LINE
  5
52
100
AcDbEntity
  8
0
  6
CONTINUOUS
 62
          15
100
AcDbLine
 10
102.701309204102
 20
140.58332824707
 30
0.0
 11
75.698013305664
 21
140.58332824707
 31
0.0
  0
LINE
  5
53
100
AcDbEntity
  8
0
  6
CONTINUOUS
 62
          15
100
AcDbLine
 10
28.977825164795
 20
131.376480102539
 30
0.0
 11
28.977825164795
 21
127.947479248047
 31
0.0
  0
LINE
  5
54
100
AcDbEntity
  8
0
  6
CONTINUOUS
 62
          15
100
AcDbLine
 10
28.977825164795
 20
131.376480102539
 30
0.0
 11
30.692333221436
 21
131.376480102539
 31
0.0
  0
LINE
  5
55
100
AcDbEntity
  8
0
  6
CONTINUOUS
 62
          15
100
AcDbLine
 10
30.692333221436
 20
127.947479248047
 30
0.0
 11
30.692333221436
 21
131.376480102539
 31
0.0
  0
LINE
  5
56
100
AcDbEntity
  8
0
  6
CONTINUOUS
 62
          15
100
AcDbLine
 10
30.692333221436
 20
127.947479248047
 30
0.0
 11
28.977825164795
 21
127.947479248047
 31
0.0
  0
LINE
  5
57
100
AcDbEntity
  8
0
  6
CONTINUOUS
 62
          15
100
AcDbLine
 10
29.835124969482
 20
127.947479248047
 30
0.0
 11
29.835124969482
 21
127.518852233887
 31
0.0
  0
LINE
  5
58
100
AcDbEntity
  8
0
  6
CONTINUOUS
 62
          15
100
AcDbLine
 10
29.835124969482
 20
127.947479248047
 30
0.0
 11
29.835124969482
 21
127.947479248047
 31
0.0
  0
LINE
  5
59
100
AcDbEntity
  8
0
  6
CONTINUOUS
 62
          15
100
AcDbLine
 10
29.835124969482
 20
127.518852233887
 30
0.0
 11
29.835124969482
 21
127.947479248047
 31
0.0
  0
LINE
  5
5A
100
AcDbEntity
  8
0
  6
CONTINUOUS
 62
          15
100
AcDbLine
 10
29.835124969482
 20
127.518852233887
 30
0.0
 11
29.835124969482
 21
127.518852233887
 31
0.0
  0
LINE
  5
5B
100
AcDbEntity
  8
0
  6
CONTINUOUS
 62
          15
100
AcDbLine
 10
29.835124969482
 20
131.805099487305
 30
0.0
 11
29.835124969482
 21
131.376480102539
 31
0.0
  0
LINE
  5
5C
100
AcDbEntity
  8
0
  6
CONTINUOUS
 62
          15
100
AcDbLine
 10
29.835124969482
 20
131.805099487305
 30
0.0
 11
29.835124969482
 21
131.805099487305
 31
0.0
  0
LINE
  5
5D
100
AcDbEntity
  8
0
  6
CONTINUOUS
 62
          15
100
AcDbLine
 10
29.835124969482
 20
131.376480102539
 30
0.0
 11
29.835124969482
 21
131.805099487305
 31
0.0
  0
LINE
  5
5E
100
AcDbEntity
  8
0
  6
CONTINUOUS
 62
          15
100
AcDbLine
 10
29.835124969482
 20
131.376480102539
 30
0.0
 11
29.835124969482
 21
131.376480102539
 31
0.0
  0
LINE
  5
5F
100
AcDbEntity
  8
0
  6
CONTINUOUS
 62
          15
100
AcDbLine
 10
39.264873504639
 20
131.376480102539
 30
0.0
 11
39.264873504639
 21
127.947479248047
 31
0.0
  0
LINE
  5
60
100
AcDbEntity
  8
0
  6
CONTINUOUS
 62
          15
100
AcDbLine
 10
39.264873504639
 20
131.376480102539
 30
0.0
 11
40.979381561279
 21
131.376480102539
 31
0.0
  0
LINE
  5
61
100
AcDbEntity
  8
0
  6
CONTINUOUS
 62
          15
100
AcDbLine
 10
40.979381561279
 20
127.947479248047
 30
0.0
 11
40.979381561279
 21
131.376480102539
 31
0.0
  0
LINE
  5
62
100
AcDbEntity
  8
0
  6
CONTINUOUS
 62
          15
100
AcDbLine
 10
40.979381561279
 20
127.947479248047
 30
0.0
 11
39.264873504639
 21
127.947479248047
 31
0.0
  0
LINE
  5
63
100
AcDbEntity
  8
0
  6
CONTINUOUS
 62
          15
100
AcDbLine
 10
40.122081756592
 20
127.947479248047
 30
0.0
 11
40.122081756592
 21
127.518852233887
 31
0.0
  0
LINE
  5
64
100
AcDbEntity
  8
0
  6
CONTINUOUS
 62
          15
100
AcDbLine
 10
40.122081756592
 20
127.947479248047
 30
0.0
 11
40.122081756592
 21
127.947479248047
 31
0.0
  0
LINE
  5
65
100
AcDbEntity
  8
0
  6
CONTINUOUS
 62
          15
100
AcDbLine
 10
40.122081756592
 20
127.518852233887
 30
0.0
 11
40.122081756592
 21
127.947479248047
 31
0.0
  0
LINE
  5
66
100
AcDbEntity
  8
0
  6
CONTINUOUS
 62
          15
100
AcDbLine
 10
40.122081756592
 20
127.518852233887
 30
0.0
 11
40.122081756592
 21
127.518852233887
 31
0.0
  0
LINE
  5
67
100
AcDbEntity
  8
0
  6
CONTINUOUS
 62
          15
100
AcDbLine
 10
40.122081756592
 20
131.805099487305
 30
0.0
 11
40.122081756592
 21
131.376480102539
 31
0.0
  0
LINE
  5
68
100
AcDbEntity
  8
0
  6
CONTINUOUS
 62
          15
100
AcDbLine
 10
40.122081756592
 20
131.805099487305
 30
0.0
 11
40.122081756592
 21
131.805099487305
 31
0.0
  0
LINE
  5
69
100
AcDbEntity
  8
0
  6
CONTINUOUS
 62
          15
100
AcDbLine
 10
40.122081756592
 20
131.376480102539
 30
0.0
 11
40.122081756592
 21
131.805099487305
 31
0.0
  0
LINE
  5
6A
100
AcDbEntity
  8
0
  6
CONTINUOUS
 62
          15
100
AcDbLine
 10
40.122081756592
 20
131.376480102539
 30
0.0
 11
40.122081756592
 21
131.376480102539
 31
0.0
  0
LINE
  5
6B
100
AcDbEntity
  8
0
  6
CONTINUOUS
 62
          15
100
AcDbLine
 10
35.835857391357
 20
131.376480102539
 30
0.0
 11
35.835857391357
 21
127.947479248047
 31
0.0
  0
LINE
  5
6C
100
AcDbEntity
  8
0
  6
CONTINUOUS
 62
          15
100
AcDbLine
 10
35.835857391357
 20
131.376480102539
 30
0.0
 11
37.550365447998
 21
131.376480102539
 31
0.0
  0
LINE
  5
6D
100
AcDbEntity
  8
0
  6
CONTINUOUS
 62
          15
100
AcDbLine
 10
37.550365447998
 20
127.947479248047
 30
0.0
 11
37.550365447998
 21
131.376480102539
 31
0.0
  0
LINE
  5
6E
100
AcDbEntity
  8
0
  6
CONTINUOUS
 62
          15
100
AcDbLine
 10
37.550365447998
 20
127.947479248047
 30
0.0
 11
35.835857391357
 21
127.947479248047
 31
0.0
  0
LINE
  5
6F
100
AcDbEntity
  8
0
  6
CONTINUOUS
 62
          15
100
AcDbLine
 10
36.693065643311
 20
127.947479248047
 30
0.0
 11
36.693065643311
 21
127.518852233887
 31
0.0
  0
LINE
  5
70
100
AcDbEntity
  8
0
  6
CONTINUOUS
 62
          15
100
AcDbLine
 10
36.693065643311
 20
127.947479248047
 30
0.0
 11
36.693065643311
 21
127.947479248047
 31
0.0
  0
LINE
  5
71
100
AcDbEntity
  8
0
  6
CONTINUOUS
 62
          15
100
AcDbLine
 10
36.693065643311
 20
127.518852233887
 30
0.0
 11
36.693065643311
 21
127.947479248047
 31
0.0
  0
LINE
  5
72
100
AcDbEntity
  8
0
  6
CONTINUOUS
 62
          15
100
AcDbLine
 10
36.693065643311
 20
127.518852233887
 30
0.0
 11
36.693065643311
 21
127.518852233887
 31
0.0
  0
LINE
  5
73
100
AcDbEntity
  8
0
  6
CONTINUOUS
 62
          15
100
AcDbLine
 10
36.693065643311
 20
131.805099487305
 30
0.0
 11
36.693065643311
 21
131.376480102539
 31
0.0
  0
LINE
  5
74
100
AcDbEntity
  8
0
  6
CONTINUOUS
 62
          15
100
AcDbLine
 10
36.693065643311
 20
131.805099487305
 30
0.0
 11
36.693065643311
 21
131.805099487305
 31
0.0
  0
LINE
  5
75
100
AcDbEntity
  8
0
  6
CONTINUOUS
 62
          15
100
AcDbLine
 10
36.693065643311
 20
131.376480102539
 30
0.0
 11
36.693065643311
 21
131.805099487305
 31
0.0
  0
LINE
  5
76
100
AcDbEntity
  8
0
  6
CONTINUOUS
 62
          15
100
AcDbLine
 10
36.693065643311
 20
131.376480102539
 30
0.0
 11
36.693065643311
 21
131.376480102539
 31
0.0
  0
LINE
  5
77
100
AcDbEntity
  8
0
  6
CONTINUOUS
 62
          15
100
AcDbLine
 10
46.122859954834
 20
131.376480102539
 30
0.0
 11
46.122859954834
 21
127.947479248047
 31
0.0
  0
LINE
  5
78
100
AcDbEntity
  8
0
  6
CONTINUOUS
 62
          15
100
AcDbLine
 10
46.122859954834
 20
131.376480102539
 30
0.0
 11
47.837322235107
 21
131.376480102539
 31
0.0
  0
LINE
  5
79
100
AcDbEntity
  8
0
  6
CONTINUOUS
 62
          15
100
AcDbLine
 10
47.837322235107
 20
127.947479248047
 30
0.0
 11
47.837322235107
 21
131.376480102539
 31
0.0
  0
LINE
  5
7A
100
AcDbEntity
  8
0
  6
CONTINUOUS
 62
          15
100
AcDbLine
 10
47.837322235107
 20
127.947479248047
 30
0.0
 11
46.122859954834
 21
127.947479248047
 31
0.0
  0
LINE
  5
7B
100
AcDbEntity
  8
0
  6
CONTINUOUS
 62
          15
100
AcDbLine
 10
46.980113983154
 20
127.947479248047
 30
0.0
 11
46.980113983154
 21
127.518852233887
 31
0.0
  0
LINE
  5
7C
100
AcDbEntity
  8
0
  6
CONTINUOUS
 62
          15
100
AcDbLine
 10
46.980113983154
 20
127.947479248047
 30
0.0
 11
46.980113983154
 21
127.947479248047
 31
0.0
  0
LINE
  5
7D
100
AcDbEntity
  8
0
  6
CONTINUOUS
 62
          15
100
AcDbLine
 10
46.980113983154
 20
127.518852233887
 30
0.0
 11
46.980113983154
 21
127.947479248047
 31
0.0
  0
LINE
  5
7E
100
AcDbEntity
  8
0
  6
CONTINUOUS
 62
          15
100
AcDbLine
 10
46.980113983154
 20
127.518852233887
 30
0.0
 11
46.980113983154
 21
127.518852233887
 31
0.0
  0
LINE
  5
7F
100
AcDbEntity
  8
0
  6
CONTINUOUS
 62
          15
100
AcDbLine
 10
46.980113983154
 20
131.805099487305
 30
0.0
 11
46.980113983154
 21
131.376480102539
 31
0.0
  0
LINE
  5
80
100
AcDbEntity
  8
0
  6
CONTINUOUS
 62
          15
100
AcDbLine
 10
46.980113983154
 20
131.805099487305
 30
0.0
 11
46.980113983154
 21
131.805099487305
 31
0.0
  0
LINE
  5
81
100
AcDbEntity
  8
0
  6
CONTINUOUS
 62
          15
100
AcDbLine
 10
46.980113983154
 20
131.376480102539
 30
0.0
 11
46.980113983154
 21
131.805099487305
 31
0.0
  0
LINE
  5
82
100
AcDbEntity
  8
0
  6
CONTINUOUS
 62
          15
100
AcDbLine
 10
46.980113983154
 20
131.376480102539
 30
0.0
 11
46.980113983154
 21
131.376480102539
 31
0.0
  0
LINE
  5
83
100
AcDbEntity
  8
0
  6
CONTINUOUS
 62
          15
100
AcDbLine
 10
42.693843841553
 20
131.376480102539
 30
0.0
 11
42.693843841553
 21
127.947479248047
 31
0.0
  0
LINE
  5
84
100
AcDbEntity
  8
0
  6
CONTINUOUS
 62
          15
100
AcDbLine
 10
42.693843841553
 20
131.376480102539
 30
0.0
 11
44.408351898193
 21
131.376480102539
 31
0.0
  0
LINE
  5
85
100
AcDbEntity
  8
0
  6
CONTINUOUS
 62
          15
100
AcDbLine
 10
44.408351898193
 20
127.947479248047
 30
0.0
 11
44.408351898193
 21
131.376480102539
 31
0.0
  0
LINE
  5
86
100
AcDbEntity
  8
0
  6
CONTINUOUS
 62
          15
100
AcDbLine
 10
44.408351898193
 20
127.947479248047
 30
0.0
 11
42.693843841553
 21
127.947479248047
 31
0.0
  0
LINE
  5
87
100
AcDbEntity
  8
0
  6
CONTINUOUS
 62
          15
100
AcDbLine
 10
43.551097869873
 20
127.947479248047
 30
0.0
 11
43.551097869873
 21
127.518852233887
 31
0.0
  0
LINE
  5
88
100
AcDbEntity
  8
0
  6
CONTINUOUS
 62
          15
100
AcDbLine
 10
43.551097869873
 20
127.947479248047
 30
0.0
 11
43.551097869873
 21
127.947479248047
 31
0.0
  0
LINE
  5
89
100
AcDbEntity
  8
0
  6
CONTINUOUS
 62
          15
100
AcDbLine
 10
43.551097869873
 20
127.518852233887
 30
0.0
 11
43.551097869873
 21
127.947479248047
 31
0.0
  0
LINE
  5
8A
100
AcDbEntity
  8
0
  6
CONTINUOUS
 62
          15
100
AcDbLine
 10
43.551097869873
 20
127.518852233887
 30
0.0
 11
43.551097869873
 21
127.518852233887
 31
0.0
  0
LINE
  5
8B
100
AcDbEntity
  8
0
  6
CONTINUOUS
 62
          15
100
AcDbLine
 10
43.551097869873
 20
131.805099487305
 30
0.0
 11
43.551097869873
 21
131.376480102539
 31
0.0
  0
LINE
  5
8C
100
AcDbEntity
  8
0
  6
CONTINUOUS
 62
          15
100
AcDbLine
 10
43.551097869873
 20
131.805099487305
 30
0.0
 11
43.551097869873
 21
131.805099487305
 31
0.0
  0
LINE
  5
8D
100
AcDbEntity
  8
0
  6
CONTINUOUS
 62
          15
100
AcDbLine
 10
43.551097869873
 20
131.376480102539
 30
0.0
 11
43.551097869873
 21
131.805099487305
 31
0.0
  0
LINE
  5
8E
100
AcDbEntity
  8
0
  6
CONTINUOUS
 62
          15
100
AcDbLine
 10
43.551097869873
 20
131.376480102539
 30
0.0
 11
43.551097869873
 21
131.376480102539
 31
0.0
  0
LINE
  5
8F
100
AcDbEntity
  8
0
  6
CONTINUOUS
 62
          15
100
AcDbLine
 10
51.266338348389
 20
127.947479248047
 30
0.0
 11
51.266338348389
 21
131.376480102539
 31
0.0
  0
LINE
  5
90
100
AcDbEntity
  8
0
  6
CONTINUOUS
 62
          15
100
AcDbLine
 10
51.266338348389
 20
127.947479248047
 30
0.0
 11
49.551830291748
 21
127.947479248047
 31
0.0
  0
LINE
  5
91
100
AcDbEntity
  8
0
  6
CONTINUOUS
 62
          15
100
AcDbLine
 10
49.551830291748
 20
131.376480102539
 30
0.0
 11
49.551830291748
 21
127.947479248047
 31
0.0
  0
LINE
  5
92
100
AcDbEntity
  8
0
  6
CONTINUOUS
 62
          15
100
AcDbLine
 10
49.551830291748
 20
131.376480102539
 30
0.0
 11
51.266338348389
 21
131.376480102539
 31
0.0
  0
LINE
  5
93
100
AcDbEntity
  8
0
  6
CONTINUOUS
 62
          15
100
AcDbLine
 10
50.409130096436
 20
131.376480102539
 30
0.0
 11
50.409130096436
 21
131.805099487305
 31
0.0
  0
LINE
  5
94
100
AcDbEntity
  8
0
  6
CONTINUOUS
 62
          15
100
AcDbLine
 10
50.409130096436
 20
131.376480102539
 30
0.0
 11
50.409130096436
 21
131.376480102539
 31
0.0
  0
LINE
  5
95
100
AcDbEntity
  8
0
  6
CONTINUOUS
 62
          15
100
AcDbLine
 10
50.409130096436
 20
131.805099487305
 30
0.0
 11
50.409130096436
 21
131.376480102539
 31
0.0
  0
LINE
  5
96
100
AcDbEntity
  8
0
  6
CONTINUOUS
 62
          15
100
AcDbLine
 10
50.409130096436
 20
131.805099487305
 30
0.0
 11
50.409130096436
 21
131.805099487305
 31
0.0
  0
LINE
  5
97
100
AcDbEntity
  8
0
  6
CONTINUOUS
 62
          15
100
AcDbLine
 10
50.409130096436
 20
127.518852233887
 30
0.0
 11
50.409130096436
 21
127.947479248047
 31
0.0
  0
LINE
  5
98
100
AcDbEntity
  8
0
  6
CONTINUOUS
 62
          15
100
AcDbLine
 10
50.409130096436
 20
127.518852233887
 30
0.0
 11
50.409130096436
 21
127.518852233887
 31
0.0
  0
LINE
  5
99
100
AcDbEntity
  8
0
  6
CONTINUOUS
 62
          15
100
AcDbLine
 10
50.409130096436
 20
127.947479248047
 30
0.0
 11
50.409130096436
 21
127.518852233887
 31
0.0
  0
LINE
  5
9A
100
AcDbEntity
  8
0
  6
CONTINUOUS
 62
          15
100
AcDbLine
 10
50.409130096436
 20
127.947479248047
 30
0.0
 11
50.409130096436
 21
127.947479248047
 31
0.0
  0
LINE
  5
9B
100
AcDbEntity
  8
0
  6
CONTINUOUS
 62
          15
100
AcDbLine
 10
54.69535446167
 20
127.947479248047
 30
0.0
 11
54.69535446167
 21
131.376480102539
 31
0.0
  0
LINE
  5
9C
100
AcDbEntity
  8
0
  6
CONTINUOUS
 62
          15
100
AcDbLine
 10
54.69535446167
 20
127.947479248047
 30
0.0
 11
52.980846405029
 21
127.947479248047
 31
0.0
  0
LINE
  5
9D
100
AcDbEntity
  8
0
  6
CONTINUOUS
 62
          15
100
AcDbLine
 10
52.980846405029
 20
131.376480102539
 30
0.0
 11
52.980846405029
 21
127.947479248047
 31
0.0
  0
LINE
  5
9E
100
AcDbEntity
  8
0
  6
CONTINUOUS
 62
          15
100
AcDbLine
 10
52.980846405029
 20
131.376480102539
 30
0.0
 11
54.69535446167
 21
131.376480102539
 31
0.0
  0
LINE
  5
9F
100
AcDbEntity
  8
0
  6
CONTINUOUS
 62
          15
100
AcDbLine
 10
53.83810043335
 20
131.376480102539
 30
0.0
 11
53.83810043335
 21
131.805099487305
 31
0.0
  0
LINE
  5
A0
100
AcDbEntity
  8
0
  6
CONTINUOUS
 62
          15
100
AcDbLine
 10
53.83810043335
 20
131.376480102539
 30
0.0
 11
53.83810043335
 21
131.376480102539
 31
0.0
  0
LINE
  5
A1
100
AcDbEntity
  8
0
  6
CONTINUOUS
 62
          15
100
AcDbLine
 10
53.83810043335
 20
131.805099487305
 30
0.0
 11
53.83810043335
 21
131.376480102539
 31
0.0
  0
LINE
  5
A2
100
AcDbEntity
  8
0
  6
CONTINUOUS
 62
          15
100
AcDbLine
 10
53.83810043335
 20
131.805099487305
 30
0.0
 11
53.83810043335
 21
131.805099487305
 31
0.0
  0
LINE
  5
A3
100
AcDbEntity
  8
0
  6
CONTINUOUS
 62
          15
100
AcDbLine
 10
53.83810043335
 20
127.518852233887
 30
0.0
 11
53.83810043335
 21
127.947479248047
 31
0.0
  0
LINE
  5
A4
100
AcDbEntity
  8
0
  6
CONTINUOUS
 62
          15
100
AcDbLine
 10
53.83810043335
 20
127.518852233887
 30
0.0
 11
53.83810043335
 21
127.518852233887
 31
0.0
  0
LINE
  5
A5
100
AcDbEntity
  8
0
  6
CONTINUOUS
 62
          15
100
AcDbLine
 10
53.83810043335
 20
127.947479248047
 30
0.0
 11
53.83810043335
 21
127.518852233887
 31
0.0
  0
LINE
  5
A6
100
AcDbEntity
  8
0
  6
CONTINUOUS
 62
          15
100
AcDbLine
 10
53.83810043335
 20
127.947479248047
 30
0.0
 11
53.83810043335
 21
127.947479248047
 31
0.0
  0
LINE
  5
A7
100
AcDbEntity
  8
0
  6
CONTINUOUS
 62
          15
100
AcDbLine
 10
58.124370574951
 20
127.947479248047
 30
0.0
 11
58.124370574951
 21
131.376480102539
 31
0.0
  0
LINE
  5
A8
100
AcDbEntity
  8
0
  6
CONTINUOUS
 62
          15
100
AcDbLine
 10
58.124370574951
 20
127.947479248047
 30
0.0
 11
56.409862518311
 21
127.947479248047
 31
0.0
  0
LINE
  5
A9
100
AcDbEntity
  8
0
  6
CONTINUOUS
 62
          15
100
AcDbLine
 10
56.409862518311
 20
131.376480102539
 30
0.0
 11
56.409862518311
 21
127.947479248047
 31
0.0
  0
LINE
  5
AA
100
AcDbEntity
  8
0
  6
CONTINUOUS
 62
          15
100
AcDbLine
 10
56.409862518311
 20
131.376480102539
 30
0.0
 11
58.124370574951
 21
131.376480102539
 31
0.0
  0
LINE
  5
AB
100
AcDbEntity
  8
0
  6
CONTINUOUS
 62
          15
100
AcDbLine
 10
57.267070770264
 20
131.376480102539
 30
0.0
 11
57.267070770264
 21
131.805099487305
 31
0.0
  0
LINE
  5
AC
100
AcDbEntity
  8
0
  6
CONTINUOUS
 62
          15
100
AcDbLine
 10
57.267070770264
 20
131.376480102539
 30
0.0
 11
57.267070770264
 21
131.376480102539
 31
0.0
  0
LINE
  5
AD
100
AcDbEntity
  8
0
  6
CONTINUOUS
 62
          15
100
AcDbLine
 10
57.267070770264
 20
131.805099487305
 30
0.0
 11
57.267070770264
 21
131.376480102539
 31
0.0
  0
LINE
  5
AE
100
AcDbEntity
  8
0
  6
CONTINUOUS
 62
          15
100
AcDbLine
 10
57.267070770264
 20
131.805099487305
 30
0.0
 11
57.267070770264
 21
131.805099487305
 31
0.0
  0
LINE
  5
AF
100
AcDbEntity
  8
0
  6
CONTINUOUS
 62
          15
100
AcDbLine
 10
57.267070770264
 20
127.518852233887
 30
0.0
 11
57.267070770264
 21
127.947479248047
 31
0.0
  0
LINE
  5
B0
100
AcDbEntity
  8
0
  6
CONTINUOUS
 62
          15
100
AcDbLine
 10
57.267070770264
 20
127.518852233887
 30
0.0
 11
57.267070770264
 21
127.518852233887
 31
0.0
  0
LINE
  5
B1
100
AcDbEntity
  8
0
  6
CONTINUOUS
 62
          15
100
AcDbLine
 10
57.267070770264
 20
127.947479248047
 30
0.0
 11
57.267070770264
 21
127.518852233887
 31
0.0
  0
LINE
  5
B2
100
AcDbEntity
  8
0
  6
CONTINUOUS
 62
          15
100
AcDbLine
 10
57.267070770264
 20
127.947479248047
 30
0.0
 11
57.267070770264
 21
127.947479248047
 31
0.0
  0
LINE
  5
B3
100
AcDbEntity
  8
0
  6
CONTINUOUS
 62
          15
100
AcDbLine
 10
61.553386688232
 20
127.947479248047
 30
0.0
 11
61.553386688232
 21
131.376480102539
 31
0.0
  0
LINE
  5
B4
100
AcDbEntity
  8
0
  6
CONTINUOUS
 62
          15
100
AcDbLine
 10
61.553386688232
 20
127.947479248047
 30
0.0
 11
59.838878631592
 21
127.947479248047
 31
0.0
  0
LINE
  5
B5
100
AcDbEntity
  8
0
  6
CONTINUOUS
 62
          15
100
AcDbLine
 10
59.838878631592
 20
131.376480102539
 30
0.0
 11
59.838878631592
 21
127.947479248047
 31
0.0
  0
LINE
  5
B6
100
AcDbEntity
  8
0
  6
CONTINUOUS
 62
          15
100
AcDbLine
 10
59.838878631592
 20
131.376480102539
 30
0.0
 11
61.553386688232
 21
131.376480102539
 31
0.0
  0
LINE
  5
B7
100
AcDbEntity
  8
0
  6
CONTINUOUS
 62
          15
100
AcDbLine
 10
60.696086883545
 20
131.376480102539
 30
0.0
 11
60.696086883545
 21
131.805099487305
 31
0.0
  0
LINE
  5
B8
100
AcDbEntity
  8
0
  6
CONTINUOUS
 62
          15
100
AcDbLine
 10
60.696086883545
 20
131.376480102539
 30
0.0
 11
60.696086883545
 21
131.376480102539
 31
0.0
  0
LINE
  5
B9
100
AcDbEntity
  8
0
  6
CONTINUOUS
 62
          15
100
AcDbLine
 10
60.696086883545
 20
131.805099487305
 30
0.0
 11
60.696086883545
 21
131.376480102539
 31
0.0
  0
LINE
  5
BA
100
AcDbEntity
  8
0
  6
CONTINUOUS
 62
          15
100
AcDbLine
 10
60.696086883545
 20
131.805099487305
 30
0.0
 11
60.696086883545
 21
131.805099487305
 31
0.0
  0
LINE
  5
BB
100
AcDbEntity
  8
0
  6
CONTINUOUS
 62
          15
100
AcDbLine
 10
60.696086883545
 20
127.518852233887
 30
0.0
 11
60.696086883545
 21
127.947479248047
 31
0.0
  0
LINE
  5
BC
100
AcDbEntity
  8
0
  6
CONTINUOUS
 62
          15
100
AcDbLine
 10
60.696086883545
 20
127.518852233887
 30
0.0
 11
60.696086883545
 21
127.518852233887
 31
0.0
  0
LINE
  5
BD
100
AcDbEntity
  8
0
  6
CONTINUOUS
 62
          15
100
AcDbLine
 10
60.696086883545
 20
127.947479248047
 30
0.0
 11
60.696086883545
 21
127.518852233887
 31
0.0
  0
LINE
  5
BE
100
AcDbEntity
  8
0
  6
CONTINUOUS
 62
          15
100
AcDbLine
 10
60.696086883545
 20
127.947479248047
 30
0.0
 11
60.696086883545
 21
127.947479248047
 31
0.0
  0
LINE
  5
BF
100
AcDbEntity
  8
0
  6
CONTINUOUS
 62
          15
100
AcDbLine
 10
64.982360839844
 20
127.947479248047
 30
0.0
 11
64.982360839844
 21
131.376480102539
 31
0.0
  0
LINE
  5
C0
100
AcDbEntity
  8
0
  6
CONTINUOUS
 62
          15
100
AcDbLine
 10
64.982360839844
 20
127.947479248047
 30
0.0
 11
63.267848968506
 21
127.947479248047
 31
0.0
  0
LINE
  5
C1
100
AcDbEntity
  8
0
  6
CONTINUOUS
 62
          15
100
AcDbLine
 10
63.267848968506
 20
131.376480102539
 30
0.0
 11
63.267848968506
 21
127.947479248047
 31
0.0
  0
LINE
  5
C2
100
AcDbEntity
  8
0
  6
CONTINUOUS
 62
          15
100
AcDbLine
 10
63.267848968506
 20
131.376480102539
 30
0.0
 11
64.982360839844
 21
131.376480102539
 31
0.0
  0
LINE
  5
C3
100
AcDbEntity
  8
0
  6
CONTINUOUS
 62
          15
100
AcDbLine
 10
64.125106811523
 20
131.376480102539
 30
0.0
 11
64.125106811523
 21
131.805099487305
 31
0.0
  0
LINE
  5
C4
100
AcDbEntity
  8
0
  6
CONTINUOUS
 62
          15
100
AcDbLine
 10
64.125106811523
 20
131.376480102539
 30
0.0
 11
64.125106811523
 21
131.376480102539
 31
0.0
  0
LINE
  5
C5
100
AcDbEntity
  8
0
  6
CONTINUOUS
 62
          15
100
AcDbLine
 10
64.125106811523
 20
131.805099487305
 30
0.0
 11
64.125106811523
 21
131.376480102539
 31
0.0
  0
LINE
  5
C6
100
AcDbEntity
  8
0
  6
CONTINUOUS
 62
          15
100
AcDbLine
 10
64.125106811523
 20
131.805099487305
 30
0.0
 11
64.125106811523
 21
131.805099487305
 31
0.0
  0
LINE
  5
C7
100
AcDbEntity
  8
0
  6
CONTINUOUS
 62
          15
100
AcDbLine
 10
64.125106811523
 20
127.518852233887
 30
0.0
 11
64.125106811523
 21
127.947479248047
 31
0.0
  0
LINE
  5
C8
100
AcDbEntity
  8
0
  6
CONTINUOUS
 62
          15
100
AcDbLine
 10
64.125106811523
 20
127.518852233887
 30
0.0
 11
64.125106811523
 21
127.518852233887
 31
0.0
  0
LINE
  5
C9
100
AcDbEntity
  8
0
  6
CONTINUOUS
 62
          15
100
AcDbLine
 10
64.125106811523
 20
127.947479248047
 30
0.0
 11
64.125106811523
 21
127.518852233887
 31
0.0
  0
LINE
  5
CA
100
AcDbEntity
  8
0
  6
CONTINUOUS
 62
          15
100
AcDbLine
 10
64.125106811523
 20
127.947479248047
 30
0.0
 11
64.125106811523
 21
127.947479248047
 31
0.0
  0
LINE
  5
CB
100
AcDbEntity
  8
0
  6
CONTINUOUS
 62
          15
100
AcDbLine
 10
68.411331176758
 20
127.947479248047
 30
0.0
 11
68.411331176758
 21
131.376480102539
 31
0.0
  0
LINE
  5
CC
100
AcDbEntity
  8
0
  6
CONTINUOUS
 62
          15
100
AcDbLine
 10
68.411331176758
 20
127.947479248047
 30
0.0
 11
66.696823120117
 21
127.947479248047
 31
0.0
  0
LINE
  5
CD
100
AcDbEntity
  8
0
  6
CONTINUOUS
 62
          15
100
AcDbLine
 10
66.696823120117
 20
131.376480102539
 30
0.0
 11
66.696823120117
 21
127.947479248047
 31
0.0
  0
LINE
  5
CE
100
AcDbEntity
  8
0
  6
CONTINUOUS
 62
          15
100
AcDbLine
 10
66.696823120117
 20
131.376480102539
 30
0.0
 11
68.411331176758
 21
131.376480102539
 31
0.0
  0
LINE
  5
CF
100
AcDbEntity
  8
0
  6
CONTINUOUS
 62
          15
100
AcDbLine
 10
67.554122924805
 20
131.376480102539
 30
0.0
 11
67.554122924805
 21
131.805099487305
 31
0.0
  0
LINE
  5
D0
100
AcDbEntity
  8
0
  6
CONTINUOUS
 62
          15
100
AcDbLine
 10
67.554122924805
 20
131.376480102539
 30
0.0
 11
67.554122924805
 21
131.376480102539
 31
0.0
  0
LINE
  5
D1
100
AcDbEntity
  8
0
  6
CONTINUOUS
 62
          15
100
AcDbLine
 10
67.554122924805
 20
131.805099487305
 30
0.0
 11
67.554122924805
 21
131.376480102539
 31
0.0
  0
LINE
  5
D2
100
AcDbEntity
  8
0
  6
CONTINUOUS
 62
          15
100
AcDbLine
 10
67.554122924805
 20
131.805099487305
 30
0.0
 11
67.554122924805
 21
131.805099487305
 31
0.0
  0
LINE
  5
D3
100
AcDbEntity
  8
0
  6
CONTINUOUS
 62
          15
100
AcDbLine
 10
67.554122924805
 20
127.518852233887
 30
0.0
 11
67.554122924805
 21
127.947479248047
 31
0.0
  0
LINE
  5
D4
100
AcDbEntity
  8
0
  6
CONTINUOUS
 62
          15
100
AcDbLine
 10
67.554122924805
 20
127.518852233887
 30
0.0
 11
67.554122924805
 21
127.518852233887
 31
0.0
  0
LINE
  5
D5
100
AcDbEntity
  8
0
  6
CONTINUOUS
 62
          15
100
AcDbLine
 10
67.554122924805
 20
127.947479248047
 30
0.0
 11
67.554122924805
 21
127.518852233887
 31
0.0
  0
LINE
  5
D6
100
AcDbEntity
  8
0
  6
CONTINUOUS
 62
          15
100
AcDbLine
 10
67.554122924805
 20
127.947479248047
 30
0.0
 11
67.554122924805
 21
127.947479248047
 31
0.0
  0
LINE
  5
D7
100
AcDbEntity
  8
0
  6
CONTINUOUS
 62
          15
100
AcDbLine
 10
96.92350769043
 20
130.519226074219
 30
0.0
 11
96.92350769043
 21
127.090225219727
 31
0.0
  0
LINE
  5
D8
100
AcDbEntity
  8
0
  6
CONTINUOUS
 62
          15
100
AcDbLine
 10
96.92350769043
 20
130.519226074219
 30
0.0
 11
98.63801574707
 21
130.519226074219
 31
0.0
  0
LINE
  5
D9
100
AcDbEntity
  8
0
  6
CONTINUOUS
 62
          15
100
AcDbLine
 10
98.63801574707
 20
127.090225219727
 30
0.0
 11
98.63801574707
 21
130.519226074219
 31
0.0
  0
LINE
  5
DA
100
AcDbEntity
  8
0
  6
CONTINUOUS
 62
          15
100
AcDbLine
 10
98.63801574707
 20
127.090225219727
 30
0.0
 11
96.92350769043
 21
127.090225219727
 31
0.0
  0
LINE
  5
DB
100
AcDbEntity
  8
0
  6
CONTINUOUS
 62
          15
100
AcDbLine
 10
97.780715942383
 20
127.090225219727
 30
0.0
 11
97.780715942383
 21
126.661598205566
 31
0.0
  0
LINE
  5
DC
100
AcDbEntity
  8
0
  6
CONTINUOUS
 62
          15
100
AcDbLine
 10
97.780715942383
 20
127.090225219727
 30
0.0
 11
97.780715942383
 21
127.090225219727
 31
0.0
  0
LINE
  5
DD
100
AcDbEntity
  8
0
  6
CONTINUOUS
 62
          15
100
AcDbLine
 10
97.780715942383
 20
126.661598205566
 30
0.0
 11
97.780715942383
 21
127.090225219727
 31
0.0
  0
LINE
  5
DE
100
AcDbEntity
  8
0
  6
CONTINUOUS
 62
          15
100
AcDbLine
 10
97.780715942383
 20
126.661598205566
 30
0.0
 11
97.780715942383
 21
126.661598205566
 31
0.0
  0
LINE
  5
DF
100
AcDbEntity
  8
0
  6
CONTINUOUS
 62
          15
100
AcDbLine
 10
97.780715942383
 20
130.947845458984
 30
0.0
 11
97.780715942383
 21
130.519226074219
 31
0.0
  0
LINE
  5
E0
100
AcDbEntity
  8
0
  6
CONTINUOUS
 62
          15
100
AcDbLine
 10
97.780715942383
 20
130.947845458984
 30
0.0
 11
97.780715942383
 21
130.947845458984
 31
0.0
  0
LINE
  5
E1
100
AcDbEntity
  8
0
  6
CONTINUOUS
 62
          15
100
AcDbLine
 10
97.780715942383
 20
130.519226074219
 30
0.0
 11
97.780715942383
 21
130.947845458984
 31
0.0
  0
LINE
  5
E2
100
AcDbEntity
  8
0
  6
CONTINUOUS
 62
          15
100
AcDbLine
 10
97.780715942383
 20
130.519226074219
 30
0.0
 11
97.780715942383
 21
130.519226074219
 31
0.0
  0
LINE
  5
E3
100
AcDbEntity
  8
0
  6
CONTINUOUS
 62
          15
100
AcDbLine
 10
96.92350769043
 20
129.661972045898
 30
0.0
 11
98.63801574707
 21
129.661972045898
 31
0.0
  0
LINE
  5
E4
100
AcDbEntity
  8
0
  6
CONTINUOUS
 62
          15
100
AcDbLine
 10
95.431838989258
 20
140.377593994141
 30
0.0
 11
81.715866088867
 21
140.377593994141
 31
0.0
  0
LINE
  5
E5
100
AcDbEntity
  8
0
  6
CONTINUOUS
 62
          15
100
AcDbLine
 10
95.431838989258
 20
140.377593994141
 30
0.0
 11
95.431838989258
 21
135.234085083008
 31
0.0
  0
LINE
  5
E6
100
AcDbEntity
  8
0
  6
CONTINUOUS
 62
          15
100
AcDbLine
 10
81.715866088867
 20
135.234085083008
 30
0.0
 11
95.431838989258
 21
135.234085083008
 31
0.0
  0
LINE
  5
E7
100
AcDbEntity
  8
0
  6
CONTINUOUS
 62
          15
100
AcDbLine
 10
81.715866088867
 20
135.234085083008
 30
0.0
 11
81.715866088867
 21
140.377593994141
 31
0.0
  0
LINE
  5
E8
100
AcDbEntity
  8
0
  6
CONTINUOUS
 62
          15
100
AcDbLine
 10
109.130699157715
 20
129.644821166992
 30
0.0
 11
116.211570739746
 21
129.644821166992
 31
0.0
  0
LINE
  5
E9
100
AcDbEntity
  8
0
  6
CONTINUOUS
 62
          15
100
AcDbLine
 10
109.130699157715
 20
129.644821166992
 30
0.0
 11
109.130699157715
 21
143.789428710938
 31
0.0
  0
LINE
  5
EA
100
AcDbEntity
  8
0
  6
CONTINUOUS
 62
          15
100
AcDbLine
 10
116.211570739746
 20
141.823638916016
 30
0.0
 11
116.211570739746
 21
129.644821166992
 31
0.0
  0
LINE
  5
EB
100
AcDbEntity
  8
0
  6
CONTINUOUS
 62
          15
100
AcDbLine
 10
101.209732055664
 20
131.582214355469
 30
0.0
 11
101.209732055664
 21
128.153198242188
 31
0.0
  0
LINE
  5
EC
100
AcDbEntity
  8
0
  6
CONTINUOUS
 62
          15
100
AcDbLine
 10
101.209732055664
 20
131.582214355469
 30
0.0
 11
102.924240112305
 21
131.582214355469
 31
0.0
  0
LINE
  5
ED
100
AcDbEntity
  8
0
  6
CONTINUOUS
 62
          15
100
AcDbLine
 10
102.924240112305
 20
128.153198242188
 30
0.0
 11
102.924240112305
 21
131.582214355469
 31
0.0
  0
LINE
  5
EE
100
AcDbEntity
  8
0
  6
CONTINUOUS
 62
          15
100
AcDbLine
 10
102.924240112305
 20
128.153198242188
 30
0.0
 11
101.209732055664
 21
128.153198242188
 31
0.0
  0
LINE
  5
EF
100
AcDbEntity
  8
0
  6
CONTINUOUS
 62
          15
100
AcDbLine
 10
102.067031860352
 20
128.153198242188
 30
0.0
 11
102.067031860352
 21
127.724594116211
 31
0.0
  0
LINE
  5
F0
100
AcDbEntity
  8
0
  6
CONTINUOUS
 62
          15
100
AcDbLine
 10
102.067031860352
 20
128.153198242188
 30
0.0
 11
102.067031860352
 21
128.153198242188
 31
0.0
  0
LINE
  5
F1
100
AcDbEntity
  8
0
  6
CONTINUOUS
 62
          15
100
AcDbLine
 10
102.067031860352
 20
127.724594116211
 30
0.0
 11
102.067031860352
 21
128.153198242188
 31
0.0
  0
LINE
  5
F2
100
AcDbEntity
  8
0
  6
CONTINUOUS
 62
          15
100
AcDbLine
 10
102.067031860352
 20
127.724594116211
 30
0.0
 11
102.067031860352
 21
127.724594116211
 31
0.0
  0
LINE
  5
F3
100
AcDbEntity
  8
0
  6
CONTINUOUS
 62
          15
100
AcDbLine
 10
102.067031860352
 20
132.010818481445
 30
0.0
 11
102.067031860352
 21
131.582214355469
 31
0.0
  0
LINE
  5
F4
100
AcDbEntity
  8
0
  6
CONTINUOUS
 62
          15
100
AcDbLine
 10
102.067031860352
 20
132.010818481445
 30
0.0
 11
102.067031860352
 21
132.010818481445
 31
0.0
  0
LINE
  5
F5
100
AcDbEntity
  8
0
  6
CONTINUOUS
 62
          15
100
AcDbLine
 10
102.067031860352
 20
131.582214355469
 30
0.0
 11
102.067031860352
 21
132.010818481445
 31
0.0
  0
LINE
  5
F6
100
AcDbEntity
  8
0
  6
CONTINUOUS
 62
          15
100
AcDbLine
 10
102.067031860352
 20
131.582214355469
 30
0.0
 11
102.067031860352
 21
131.582214355469
 31
0.0
  0
LINE
  5
F7
100
AcDbEntity
  8
0
  6
CONTINUOUS
 62
          15
100
AcDbLine
 10
105.718887329102
 20
131.582214355469
 30
0.0
 11
105.718887329102
 21
128.153198242188
 31
0.0
  0
LINE
  5
F8
100
AcDbEntity
  8
0
  6
CONTINUOUS
 62
          15
100
AcDbLine
 10
105.718887329102
 20
131.582214355469
 30
0.0
 11
107.433403015137
 21
131.582214355469
 31
0.0
  0
LINE
  5
F9
100
AcDbEntity
  8
0
  6
CONTINUOUS
 62
          15
100
AcDbLine
 10
107.433403015137
 20
128.153198242188
 30
0.0
 11
107.433403015137
 21
131.582214355469
 31
0.0
  0
LINE
  5
FA
100
AcDbEntity
  8
0
  6
CONTINUOUS
 62
          15
100
AcDbLine
 10
107.433403015137
 20
128.153198242188
 30
0.0
 11
105.718887329102
 21
128.153198242188
 31
0.0
  0
LINE
  5
FB
100
AcDbEntity
  8
0
  6
CONTINUOUS
 62
          15
100
AcDbLine
 10
106.576103210449
 20
128.153198242188
 30
0.0
 11
106.576103210449
 21
127.724594116211
 31
0.0
  0
LINE
  5
FC
100
AcDbEntity
  8
0
  6
CONTINUOUS
 62
          15
100
AcDbLine
 10
106.576103210449
 20
128.153198242188
 30
0.0
 11
106.576103210449
 21
128.153198242188
 31
0.0
  0
LINE
  5
FD
100
AcDbEntity
  8
0
  6
CONTINUOUS
 62
          15
100
AcDbLine
 10
106.576103210449
 20
127.724594116211
 30
0.0
 11
106.576103210449
 21
128.153198242188
 31
0.0
  0
LINE
  5
FE
100
AcDbEntity
  8
0
  6
CONTINUOUS
 62
          15
100
AcDbLine
 10
106.576103210449
 20
127.724594116211
 30
0.0
 11
106.576103210449
 21
127.724594116211
 31
0.0
  0
LINE
  5
FF
100
AcDbEntity
  8
0
  6
CONTINUOUS
 62
          15
100
AcDbLine
 10
106.576103210449
 20
132.010818481445
 30
0.0
 11
106.576103210449
 21
131.582214355469
 31
0.0
  0
LINE
  5
100
100
AcDbEntity
  8
0
  6
CONTINUOUS
 62
          15
100
AcDbLine
 10
106.576103210449
 20
132.010818481445
 30
0.0
 11
106.576103210449
 21
132.010818481445
 31
0.0
  0
LINE
  5
101
100
AcDbEntity
  8
0
  6
CONTINUOUS
 62
          15
100
AcDbLine
 10
106.576103210449
 20
131.582214355469
 30
0.0
 11
106.576103210449
 21
132.010818481445
 31
0.0
  0
LINE
  5
102
100
AcDbEntity
  8
0
  6
CONTINUOUS
 62
          15
100
AcDbLine
 10
106.576103210449
 20
131.582214355469
 30
0.0
 11
106.576103210449
 21
131.582214355469
 31
0.0
  0
ARC
  5
103
100
AcDbEntity
  8
0
  6
CONTINUOUS
 62
          15
100
AcDbCircle
 10
105.924613952637
 20
137.377227783203
 30
0.0
 40
2.366009950638
100
AcDbArc
 50
90.000002504478
 51
269.999997495521
  0
LINE
  5
104
100
AcDbEntity
  8
0
  6
CONTINUOUS
 62
          15
100
AcDbLine
 10
107.433403015137
 20
135.011199951172
 30
0.0
 11
107.433403015137
 21
139.72607421875
 31
0.0
  0
LINE
  5
105
100
AcDbEntity
  8
0
  6
CONTINUOUS
 62
          15
100
AcDbLine
 10
107.433403015137
 20
135.011199951172
 30
0.0
 11
105.924613952637
 21
135.011199951172
 31
0.0
  0
LINE
  5
106
100
AcDbEntity
  8
0
  6
CONTINUOUS
 62
          15
100
AcDbLine
 10
107.433403015137
 20
139.72607421875
 30
0.0
 11
105.701766967773
 21
139.72607421875
 31
0.0
  0
LINE
  5
107
100
AcDbEntity
  8
0
  6
CONTINUOUS
 62
          15
100
AcDbLine
 10
129.070343017578
 20
146.464050292969
 30
0.0
 11
129.070343017578
 21
146.464050292969
 31
0.0
  0
LINE
  5
108
100
AcDbEntity
  8
0
  6
CONTINUOUS
 62
          15
100
AcDbLine
 10
129.070343017578
 20
145.606796264648
 30
0.0
 11
129.070343017578
 21
145.606796264648
 31
0.0
  0
LINE
  5
109
100
AcDbEntity
  8
0
  6
CONTINUOUS
 62
          15
100
AcDbLine
 10
129.070343017578
 20
138.748825073242
 30
0.0
 11
129.070343017578
 21
138.748825073242
 31
0.0
  0
LINE
  5
10A
100
AcDbEntity
  8
0
  6
CONTINUOUS
 62
          15
100
AcDbLine
 10
129.070343017578
 20
137.891571044922
 30
0.0
 11
129.070343017578
 21
137.891571044922
 31
0.0
  0
LINE
  5
10B
100
AcDbEntity
  8
0
  6
CONTINUOUS
 62
          15
100
AcDbLine
 10
92.002914428711
 20
115.26016998291
 30
0.0
 11
92.002914428711
 21
109.722328186035
 31
0.0
  0
LINE
  5
10C
100
AcDbEntity
  8
0
  6
CONTINUOUS
 62
          15
100
AcDbLine
 10
24.48588180542
 20
112.722717285156
 30
0.0
 11
24.48588180542
 21
109.602325439453
 31
0.0
  0
LINE
  5
10D
100
AcDbEntity
  8
0
  6
CONTINUOUS
 62
          15
100
AcDbLine
 10
24.48588180542
 20
109.602325439453
 30
0.0
 11
115.697227478027
 21
109.602325439453
 31
0.0
  0
LINE
  5
10E
100
AcDbEntity
  8
0
  6
CONTINUOUS
 62
          15
100
AcDbLine
 10
115.697227478027
 20
109.602325439453
 30
0.0
 11
115.697227478027
 21
125.097526550293
 31
0.0
  0
LINE
  5
10F
100
AcDbEntity
  8
0
  6
CONTINUOUS
 62
          15
100
AcDbLine
 10
85.350601196289
 20
113.526596069336
 30
0.0
 11
85.350601196289
 21
109.602325439453
 31
0.0
  0
TEXT
  5
110
100
AcDbEntity
  8
0
  6
CONTINUOUS
 62
          15
100
AcDbText
 10
107.004753112793
 20
110.579578846693
 30
0.0
 40
1.600000023842
  1
RELAY
  7
SIMPLEX
100
AcDbText
  0
TEXT
  5
111
100
AcDbEntity
  8
0
  6
CONTINUOUS
 62
          15
100
AcDbText
 10
132.019348144531
 20
119.786446802318
 30
0.0
 40
1.234439969063
  1
N
  7
TXT
100
AcDbText
  0
TEXT
  5
112
100
AcDbEntity
  8
0
  6
CONTINUOUS
 62
          15
100
AcDbText
 10
125.058403015137
 20
119.786446802318
 30
0.0
 40
1.234439969063
  1
L
  7
TXT
100
AcDbText
  0
TEXT
  5
113
100
AcDbEntity
  8
0
  6
CONTINUOUS
 62
          15
100
AcDbText
 10
124.23543548584
 20
116.151711694896
 30
0.0
 40
1.234439969063
  1
240 V ac
  7
TXT
100
AcDbText
  0
LINE
  5
114
100
AcDbEntity
  8
0
  6
CONTINUOUS
 62
          15
100
AcDbLine
 10
129.165466308594
 20
119.553260803223
 30
0.0
 11
129.165466308594
 21
121.185577392578
 31
0.0
  0
LINE
  5
115
100
AcDbEntity
  8
0
  6
CONTINUOUS
 62
          15
100
AcDbLine
 10
127.891960144043
 20
119.553260803223
 30
0.0
 11
130.478698730469
 21
119.553260803223
 31
0.0
  0
LINE
  5
116
100
AcDbEntity
  8
0
  6
CONTINUOUS
 62
          15
100
AcDbLine
 10
128.307250976563
 20
118.956085205078
 30
0.0
 11
130.050415039063
 21
118.956085205078
 31
0.0
  0
LINE
  5
117
100
AcDbEntity
  8
0
  6
CONTINUOUS
 62
          15
100
AcDbLine
 10
128.77783203125
 20
118.279258728027
 30
0.0
 11
129.565093994141
 21
118.279258728027
 31
0.0
  0
ELLIPSE
  5
118
100
AcDbEntity
  8
0
  6
CONTINUOUS
 62
          15
100
AcDbEllipse
 10
83.858108520508
 20
118.435974121094
 30
0.0
 11
71.25
 21
0.0
 31
0.0
210
0.0
220
0.0
230
1.0
 40
0.368421052632
 41
2.3980727195739746
 42
1.9600454568862915
  0
LINE
  5
119
100
AcDbEntity
  8
0
  6
CONTINUOUS
 62
          15
100
AcDbLine
 10
134.008193969727
 20
121.689552307129
 30
0.0
 11
123.926902770996
 21
121.689552307129
 31
0.0
  0
LINE
  5
11A
100
AcDbEntity
  8
0
  6
CONTINUOUS
 62
          15
100
AcDbLine
 10
127.150199890137
 20
129.919158935547
 30
0.0
 11
127.150199890137
 21
121.689552307129
 31
0.0
  0
LINE
  5
11B
100
AcDbEntity
  8
0
  6
CONTINUOUS
 62
          15
100
AcDbLine
 10
130.579177856445
 20
129.919158935547
 30
0.0
 11
130.579177856445
 21
121.689552307129
 31
0.0
  0
LINE
  5
11C
100
AcDbEntity
  8
0
  6
CONTINUOUS
 62
          15
100
AcDbLine
 10
134.008193969727
 20
129.919158935547
 30
0.0
 11
134.008193969727
 21
121.689552307129
 31
0.0
  0
LINE
  5
11D
100
AcDbEntity
  8
0
  6
CONTINUOUS
 62
          15
100
AcDbLine
 10
140.866180419922
 20
129.919158935547
 30
0.0
 11
140.866180419922
 21
119.152099609375
 31
0.0
  0
LINE
  5
11E
100
AcDbEntity
  8
0
  6
CONTINUOUS
 62
          15
100
AcDbLine
 10
125.866195678711
 20
127.469627380371
 30
0.0
 11
125.022972106934
 21
128.312850952148
 31
0.0
  0
LINE
  5
11F
100
AcDbEntity
  8
0
  6
CONTINUOUS
 62
          15
100
AcDbLine
 10
124.864265441895
 20
125.093994140625
 30
0.0
 11
126.02490234375
 21
125.093994140625
 31
0.0
  0
LINE
  5
120
100
AcDbEntity
  8
0
  6
CONTINUOUS
 62
          15
100
AcDbLine
 10
126.02490234375
 20
125.093994140625
 30
0.0
 11
126.02490234375
 21
123.035652160645
 31
0.0
  0
LINE
  5
121
100
AcDbEntity
  8
0
  6
CONTINUOUS
 62
          15
100
AcDbLine
 10
126.02490234375
 20
123.035652160645
 30
0.0
 11
124.864265441895
 21
123.035652160645
 31
0.0
  0
LINE
  5
122
100
AcDbEntity
  8
0
  6
CONTINUOUS
 62
          15
100
AcDbLine
 10
124.864265441895
 20
123.035652160645
 30
0.0
 11
124.864265441895
 21
125.093994140625
 31
0.0
  0
LINE
  5
123
100
AcDbEntity
  8
0
  6
CONTINUOUS
 62
          15
100
AcDbLine
 10
124.864265441895
 20
123.726463317871
 30
0.0
 11
126.02490234375
 21
123.726463317871
 31
0.0
  0
ELLIPSE
  5
124
100
AcDbEntity
  8
0
  6
CONTINUOUS
 62
          15
100
AcDbEllipse
 10
125.44457244873
 20
127.891227722168
 30
0.0
 11
0.8444507718086235
 21
-0.0000000369121156
 31
0.0
210
0.0
220
0.0
230
1.0
 40
0.624739254181
 41
0.0
 42
6.2831853071795862
  0
LINE
  5
125
100
AcDbEntity
  8
0
  6
CONTINUOUS
 62
          15
100
AcDbLine
 10
129.117630004883
 20
127.469627380371
 30
0.0
 11
128.274398803711
 21
128.312850952148
 31
0.0
  0
LINE
  5
126
100
AcDbEntity
  8
0
  6
CONTINUOUS
 62
          15
100
AcDbLine
 10
128.115692138672
 20
125.093994140625
 30
0.0
 11
129.276336669922
 21
125.093994140625
 31
0.0
  0
LINE
  5
127
100
AcDbEntity
  8
0
  6
CONTINUOUS
 62
          15
100
AcDbLine
 10
129.276336669922
 20
125.093994140625
 30
0.0
 11
129.276336669922
 21
123.035652160645
 31
0.0
  0
LINE
  5
128
100
AcDbEntity
  8
0
  6
CONTINUOUS
 62
          15
100
AcDbLine
 10
129.276336669922
 20
123.035652160645
 30
0.0
 11
128.115692138672
 21
123.035652160645
 31
0.0
  0
LINE
  5
129
100
AcDbEntity
  8
0
  6
CONTINUOUS
 62
          15
100
AcDbLine
 10
128.115692138672
 20
123.035652160645
 30
0.0
 11
128.115692138672
 21
125.093994140625
 31
0.0
  0
LINE
  5
12A
100
AcDbEntity
  8
0
  6
CONTINUOUS
 62
          15
100
AcDbLine
 10
128.115692138672
 20
123.726463317871
 30
0.0
 11
129.276336669922
 21
123.726463317871
 31
0.0
  0
ELLIPSE
  5
12B
100
AcDbEntity
  8
0
  6
CONTINUOUS
 62
          15
100
AcDbEllipse
 10
128.696029663086
 20
127.891227722168
 30
0.0
 11
0.8444507718086235
 21
-0.0000000369121156
 31
0.0
210
0.0
220
0.0
230
1.0
 40
0.624739254181
 41
0.0
 42
6.2831853071795862
  0
LINE
  5
12C
100
AcDbEntity
  8
0
  6
CONTINUOUS
 62
          15
100
AcDbLine
 10
132.567337036133
 20
127.469627380371
 30
0.0
 11
131.724090576172
 21
128.312850952148
 31
0.0
  0
LINE
  5
12D
100
AcDbEntity
  8
0
  6
CONTINUOUS
 62
          15
100
AcDbLine
 10
131.565383911133
 20
125.093994140625
 30
0.0
 11
132.726043701172
 21
125.093994140625
 31
0.0
  0
LINE
  5
12E
100
AcDbEntity
  8
0
  6
CONTINUOUS
 62
          15
100
AcDbLine
 10
132.726043701172
 20
125.093994140625
 30
0.0
 11
132.726043701172
 21
123.035652160645
 31
0.0
  0
LINE
  5
12F
100
AcDbEntity
  8
0
  6
CONTINUOUS
 62
          15
100
AcDbLine
 10
132.726043701172
 20
123.035652160645
 30
0.0
 11
131.565383911133
 21
123.035652160645
 31
0.0
  0
LINE
  5
130
100
AcDbEntity
  8
0
  6
CONTINUOUS
 62
          15
100
AcDbLine
 10
131.565383911133
 20
123.035652160645
 30
0.0
 11
131.565383911133
 21
125.093994140625
 31
0.0
  0
LINE
  5
131
100
AcDbEntity
  8
0
  6
CONTINUOUS
 62
          15
100
AcDbLine
 10
131.565383911133
 20
123.726463317871
 30
0.0
 11
132.726043701172
 21
123.726463317871
 31
0.0
  0
ELLIPSE
  5
132
100
AcDbEntity
  8
0
  6
CONTINUOUS
 62
          15
100
AcDbEllipse
 10
132.145706176758
 20
127.891227722168
 30
0.0
 11
0.8444507718086235
 21
-0.0000000369121156
 31
0.0
210
0.0
220
0.0
230
1.0
 40
0.624739254181
 41
0.0
 42
6.2831853071795862
  0
LINE
  5
133
100
AcDbEntity
  8
0
  6
CONTINUOUS
 62
          15
100
AcDbLine
 10
123.926902770996
 20
126.136344909668
 30
0.0
 11
134.008193969727
 21
126.136344909668
 31
0.0
  0
LINE
  5
134
100
AcDbEntity
  8
0
  6
CONTINUOUS
 62
          15
100
AcDbLine
 10
99.354881286621
 20
154.40071105957
 30
0.0
 11
94.60799407959
 21
144.352386474609
 31
0.0
  0
LINE
  5
135
100
AcDbEntity
  8
0
  6
CONTINUOUS
 62
          15
100
AcDbLine
 10
53.072971343994
 20
107.241470336914
 30
0.0
 11
53.072971343994
 21
118.904830932617
 31
0.0
  0
LINE
  5
136
100
AcDbEntity
  8
0
  6
CONTINUOUS
 62
          15
100
AcDbLine
 10
49.623275756836
 20
107.241470336914
 30
0.0
 11
49.623275756836
 21
118.904830932617
 31
0.0
  0
LINE
  5
137
100
AcDbEntity
  8
0
  6
CONTINUOUS
 62
          15
100
AcDbLine
 10
49.623275756836
 20
66.787322998047
 30
0.0
 11
49.623275756836
 21
107.241470336914
 31
0.0
  0
TEXT
  5
138
100
AcDbEntity
  8
0
  6
CONTINUOUS
 62
          15
100
AcDbText
 10
164.312042236328
 20
98.802844256163
 30
0.0
 40
1.5
  1
FUSED AT 3 AMPS
 41
1.000000039736
  7
GOTHICG
100
AcDbText
  0
TEXT
  5
139
100
AcDbEntity
  8
0
  6
CONTINUOUS
 62
          15
100
AcDbText
 10
164.851669311523
 20
102.041949480772
 30
0.0
 40
1.5
  1
240 Vac SUPPLY
 41
1.000000039736
  7
GOTHICG
100
AcDbText
  0
LINE
  5
13A
100
AcDbEntity
  8
0
  6
CONTINUOUS
 62
          15
100
AcDbLine
 10
49.623275756836
 20
66.787322998047
 30
0.0
 11
75.064956665039
 21
66.787322998047
 31
0.0
  0
LINE
  5
13B
100
AcDbEntity
  8
0
  6
CONTINUOUS
 62
          15
100
AcDbLine
 10
39.082210540771
 20
156.632751464844
 30
0.0
 11
39.082210540771
 21
164.865798950195
 31
0.0
  0
LINE
  5
13C
100
AcDbEntity
  8
0
  6
CONTINUOUS
 62
          15
100
AcDbLine
 10
35.38650894165
 20
165.384368896484
 30
0.0
 11
23.568195343018
 21
170.187561035156
 31
0.0
  0
ARC
  5
13D
100
AcDbEntity
  8
0
  6
CONTINUOUS
 62
          15
100
AcDbCircle
 10
37.652210235596
 20
164.865798950195
 30
0.0
 40
1.429999947548
100
AcDbArc
 50
0.0
 51
180.000008651422
  0
LINE
  5
13E
100
AcDbEntity
  8
0
  6
CONTINUOUS
 62
          15
100
AcDbLine
 10
36.22220993042
 20
156.632751464844
 30
0.0
 11
36.22220993042
 21
164.865798950195
 31
0.0
  0
LINE
  5
13F
100
AcDbEntity
  8
0
  6
CONTINUOUS
 62
          15
100
AcDbLine
 10
36.22220993042
 20
147.987731933594
 30
0.0
 11
36.22220993042
 21
156.632751464844
 31
0.0
  0
LINE
  5
140
100
AcDbEntity
  8
0
  6
CONTINUOUS
 62
          15
100
AcDbLine
 10
46.386539459229
 20
149.278823852539
 30
0.0
 11
37.471134185791
 21
149.278823852539
 31
0.0
  0
LINE
  5
141
100
AcDbEntity
  8
0
  6
CONTINUOUS
 62
          15
100
AcDbLine
 10
46.386539459229
 20
149.278823852539
 30
0.0
 11
46.386539459229
 21
142.146499633789
 31
0.0
  0
LINE
  5
142
100
AcDbEntity
  8
0
  6
CONTINUOUS
 62
          15
100
AcDbLine
 10
37.471134185791
 20
142.146499633789
 30
0.0
 11
46.386539459229
 21
142.146499633789
 31
0.0
  0
LINE
  5
143
100
AcDbEntity
  8
0
  6
CONTINUOUS
 62
          15
100
AcDbLine
 10
31.527547836304
 20
142.146499633789
 30
0.0
 11
37.619709014893
 21
142.146499633789
 31
0.0
  0
LINE
  5
144
100
AcDbEntity
  8
0
  6
CONTINUOUS
 62
          15
100
AcDbLine
 10
31.527547836304
 20
142.146499633789
 30
0.0
 11
31.527547836304
 21
149.278823852539
 31
0.0
  0
LINE
  5
145
100
AcDbEntity
  8
0
  6
CONTINUOUS
 62
          15
100
AcDbLine
 10
37.619709014893
 20
149.278823852539
 30
0.0
 11
31.527547836304
 21
149.278823852539
 31
0.0
  0
LINE
  5
146
100
AcDbEntity
  8
0
  6
CONTINUOUS
 62
          15
100
AcDbLine
 10
43.786220550537
 20
153.06787109375
 30
0.0
 11
43.786220550537
 21
149.870330810547
 31
0.0
  0
LINE
  5
147
100
AcDbEntity
  8
0
  6
CONTINUOUS
 62
          15
100
AcDbLine
 10
37.664302825928
 20
153.06787109375
 30
0.0
 11
37.664302825928
 21
149.870330810547
 31
0.0
  0
LINE
  5
148
100
AcDbEntity
  8
0
  6
CONTINUOUS
 62
          15
100
AcDbLine
 10
31.572103500366
 20
149.870330810547
 30
0.0
 11
31.572103500366
 21
153.06787109375
 31
0.0
  0
LINE
  5
149
100
AcDbEntity
  8
0
  6
CONTINUOUS
 62
          15
100
AcDbLine
 10
34.543914794922
 20
153.06787109375
 30
0.0
 11
34.543914794922
 21
149.870330810547
 31
0.0
  0
LINE
  5
14A
100
AcDbEntity
  8
0
  6
CONTINUOUS
 62
          15
100
AcDbLine
 10
37.664302825928
 20
153.06787109375
 30
0.0
 11
37.664302825928
 21
149.650299072266
 31
0.0
  0
LINE
  5
14B
100
AcDbEntity
  8
0
  6
CONTINUOUS
 62
          15
100
AcDbLine
 10
40.636116027832
 20
153.06787109375
 30
0.0
 11
40.636116027832
 21
149.870330810547
 31
0.0
  0
LINE
  5
14C
100
AcDbEntity
  8
0
  6
CONTINUOUS
 62
          15
100
AcDbLine
 10
46.37255859375
 20
153.06787109375
 30
0.0
 11
31.572103500366
 21
153.06787109375
 31
0.0
  0
LINE
  5
14D
100
AcDbEntity
  8
0
  6
CONTINUOUS
 62
          15
100
AcDbLine
 10
33.57559967041
 20
145.881759643555
 30
0.0
 11
32.413051605225
 21
145.881759643555
 31
0.0
  0
LINE
  5
14E
100
AcDbEntity
  8
0
  6
CONTINUOUS
 62
          15
100
AcDbLine
 10
32.413051605225
 20
145.881759643555
 30
0.0
 11
32.413051605225
 21
147.943496704102
 31
0.0
  0
LINE
  5
14F
100
AcDbEntity
  8
0
  6
CONTINUOUS
 62
          15
100
AcDbLine
 10
32.413051605225
 20
147.943496704102
 30
0.0
 11
33.57559967041
 21
147.943496704102
 31
0.0
  0
LINE
  5
150
100
AcDbEntity
  8
0
  6
CONTINUOUS
 62
          15
100
AcDbLine
 10
33.57559967041
 20
147.943496704102
 30
0.0
 11
33.57559967041
 21
145.881759643555
 31
0.0
  0
LINE
  5
151
100
AcDbEntity
  8
0
  6
CONTINUOUS
 62
          15
100
AcDbLine
 10
33.57559967041
 20
147.251556396484
 30
0.0
 11
32.413051605225
 21
147.251556396484
 31
0.0
  0
LINE
  5
152
100
AcDbEntity
  8
0
  6
CONTINUOUS
 62
          15
100
AcDbLine
 10
33.416633605957
 20
143.641128540039
 30
0.0
 11
32.572017669678
 21
144.485748291016
 31
0.0
  0
ELLIPSE
  5
153
100
AcDbEntity
  8
0
  6
CONTINUOUS
 62
          15
100
AcDbEllipse
 10
32.994323730469
 20
144.063430786133
 30
0.0
 11
0.845844089984893
 21
-0.0000000369730194
 31
0.0
210
0.0
220
0.0
230
1.0
 40
0.624739260889
 41
0.0
 42
6.2831853071795862
  0
LINE
  5
154
100
AcDbEntity
  8
0
  6
CONTINUOUS
 62
          15
100
AcDbLine
 10
36.56872177124
 20
145.881759643555
 30
0.0
 11
35.406169891357
 21
145.881759643555
 31
0.0
  0
LINE
  5
155
100
AcDbEntity
  8
0
  6
CONTINUOUS
 62
          15
100
AcDbLine
 10
35.406169891357
 20
145.881759643555
 30
0.0
 11
35.406169891357
 21
147.943496704102
 31
0.0
  0
LINE
  5
156
100
AcDbEntity
  8
0
  6
CONTINUOUS
 62
          15
100
AcDbLine
 10
35.406169891357
 20
147.943496704102
 30
0.0
 11
36.56872177124
 21
147.943496704102
 31
0.0
  0
LINE
  5
157
100
AcDbEntity
  8
0
  6
CONTINUOUS
 62
          15
100
AcDbLine
 10
36.56872177124
 20
147.943496704102
 30
0.0
 11
36.56872177124
 21
145.881759643555
 31
0.0
  0
LINE
  5
158
100
AcDbEntity
  8
0
  6
CONTINUOUS
 62
          15
100
AcDbLine
 10
36.56872177124
 20
147.251556396484
 30
0.0
 11
35.406169891357
 21
147.251556396484
 31
0.0
  0
LINE
  5
159
100
AcDbEntity
  8
0
  6
CONTINUOUS
 62
          15
100
AcDbLine
 10
36.409755706787
 20
143.641128540039
 30
0.0
 11
35.565139770508
 21
144.485748291016
 31
0.0
  0
ELLIPSE
  5
15A
100
AcDbEntity
  8
0
  6
CONTINUOUS
 62
          15
100
AcDbEllipse
 10
35.987445831299
 20
144.063430786133
 30
0.0
 11
0.845844089984893
 21
-0.0000000369730194
 31
0.0
210
0.0
220
0.0
230
1.0
 40
0.624739260889
 41
0.0
 42
6.2831853071795862
  0
LINE
  5
15B
100
AcDbEntity
  8
0
  6
CONTINUOUS
 62
          15
100
AcDbLine
 10
39.668743133545
 20
145.881759643555
 30
0.0
 11
38.506191253662
 21
145.881759643555
 31
0.0
  0
LINE
  5
15C
100
AcDbEntity
  8
0
  6
CONTINUOUS
 62
          15
100
AcDbLine
 10
38.506191253662
 20
145.881759643555
 30
0.0
 11
38.506191253662
 21
147.943496704102
 31
0.0
  0
LINE
  5
15D
100
AcDbEntity
  8
0
  6
CONTINUOUS
 62
          15
100
AcDbLine
 10
38.506191253662
 20
147.943496704102
 30
0.0
 11
39.668743133545
 21
147.943496704102
 31
0.0
  0
LINE
  5
15E
100
AcDbEntity
  8
0
  6
CONTINUOUS
 62
          15
100
AcDbLine
 10
39.668743133545
 20
147.943496704102
 30
0.0
 11
39.668743133545
 21
145.881759643555
 31
0.0
  0
LINE
  5
15F
100
AcDbEntity
  8
0
  6
CONTINUOUS
 62
          15
100
AcDbLine
 10
39.668743133545
 20
147.251556396484
 30
0.0
 11
38.506191253662
 21
147.251556396484
 31
0.0
  0
LINE
  5
160
100
AcDbEntity
  8
0
  6
CONTINUOUS
 62
          15
100
AcDbLine
 10
39.509773254395
 20
143.641128540039
 30
0.0
 11
38.665157318115
 21
144.485748291016
 31
0.0
  0
ELLIPSE
  5
161
100
AcDbEntity
  8
0
  6
CONTINUOUS
 62
          15
100
AcDbEllipse
 10
39.087463378906
 20
144.063430786133
 30
0.0
 11
0.845844089984893
 21
-0.0000000369730194
 31
0.0
210
0.0
220
0.0
230
1.0
 40
0.624739260889
 41
0.0
 42
6.2831853071795862
  0
LINE
  5
162
100
AcDbEntity
  8
0
  6
CONTINUOUS
 62
          15
100
AcDbLine
 10
42.5549659729
 20
145.881759643555
 30
0.0
 11
41.392417907715
 21
145.881759643555
 31
0.0
  0
LINE
  5
163
100
AcDbEntity
  8
0
  6
CONTINUOUS
 62
          15
100
AcDbLine
 10
41.392417907715
 20
145.881759643555
 30
0.0
 11
41.392417907715
 21
147.943496704102
 31
0.0
  0
LINE
  5
164
100
AcDbEntity
  8
0
  6
CONTINUOUS
 62
          15
100
AcDbLine
 10
41.392417907715
 20
147.943496704102
 30
0.0
 11
42.5549659729
 21
147.943496704102
 31
0.0
  0
LINE
  5
165
100
AcDbEntity
  8
0
  6
CONTINUOUS
 62
          15
100
AcDbLine
 10
42.5549659729
 20
147.943496704102
 30
0.0
 11
42.5549659729
 21
145.881759643555
 31
0.0
  0
LINE
  5
166
100
AcDbEntity
  8
0
  6
CONTINUOUS
 62
          15
100
AcDbLine
 10
42.5549659729
 20
147.251556396484
 30
0.0
 11
41.392417907715
 21
147.251556396484
 31
0.0
  0
LINE
  5
167
100
AcDbEntity
  8
0
  6
CONTINUOUS
 62
          15
100
AcDbLine
 10
42.395999908447
 20
143.641128540039
 30
0.0
 11
41.551383972168
 21
144.485748291016
 31
0.0
  0
ELLIPSE
  5
168
100
AcDbEntity
  8
0
  6
CONTINUOUS
 62
          15
100
AcDbEllipse
 10
41.973686218262
 20
144.063430786133
 30
0.0
 11
0.845844089984893
 21
-0.0000000369730194
 31
0.0
210
0.0
220
0.0
230
1.0
 40
0.624739260889
 41
0.0
 42
6.2831853071795862
  0
LINE
  5
169
100
AcDbEntity
  8
0
  6
CONTINUOUS
 62
          15
100
AcDbLine
 10
45.76188659668
 20
145.881759643555
 30
0.0
 11
44.5993309021
 21
145.881759643555
 31
0.0
  0
LINE
  5
16A
100
AcDbEntity
  8
0
  6
CONTINUOUS
 62
          15
100
AcDbLine
 10
44.5993309021
 20
145.881759643555
 30
0.0
 11
44.5993309021
 21
147.943496704102
 31
0.0
  0
LINE
  5
16B
100
AcDbEntity
  8
0
  6
CONTINUOUS
 62
          15
100
AcDbLine
 10
44.5993309021
 20
147.943496704102
 30
0.0
 11
45.76188659668
 21
147.943496704102
 31
0.0
  0
LINE
  5
16C
100
AcDbEntity
  8
0
  6
CONTINUOUS
 62
          15
100
AcDbLine
 10
45.76188659668
 20
147.943496704102
 30
0.0
 11
45.76188659668
 21
145.881759643555
 31
0.0
  0
LINE
  5
16D
100
AcDbEntity
  8
0
  6
CONTINUOUS
 62
          15
100
AcDbLine
 10
45.76188659668
 20
147.251556396484
 30
0.0
 11
44.5993309021
 21
147.251556396484
 31
0.0
  0
LINE
  5
16E
100
AcDbEntity
  8
0
  6
CONTINUOUS
 62
          15
100
AcDbLine
 10
45.602916717529
 20
143.641128540039
 30
0.0
 11
44.75830078125
 21
144.485748291016
 31
0.0
  0
ELLIPSE
  5
16F
100
AcDbEntity
  8
0
  6
CONTINUOUS
 62
          15
100
AcDbEllipse
 10
45.180606842041
 20
144.063430786133
 30
0.0
 11
0.845844089984893
 21
-0.0000000369730194
 31
0.0
210
0.0
220
0.0
230
1.0
 40
0.624739260889
 41
0.0
 42
6.2831853071795862
  0
LINE
  5
170
100
AcDbEntity
  8
0
  6
CONTINUOUS
 62
          15
100
AcDbLine
 10
31.527547836304
 20
145.140869140625
 30
0.0
 11
46.386539459229
 21
145.140869140625
 31
0.0
  0
LINE
  5
171
100
AcDbEntity
  8
0
  6
CONTINUOUS
 62
          15
100
AcDbLine
 10
46.37255859375
 20
153.06787109375
 30
0.0
 11
46.37255859375
 21
149.888687133789
 31
0.0
  0
LINE
  5
172
100
AcDbEntity
  8
0
  6
CONTINUOUS
 62
          15
100
AcDbLine
 10
34.543914794922
 20
149.278823852539
 30
0.0
 11
34.543914794922
 21
142.146499633789
 31
0.0
  0
LINE
  5
173
100
AcDbEntity
  8
0
  6
CONTINUOUS
 62
          15
100
AcDbLine
 10
37.682418823242
 20
149.278823852539
 30
0.0
 11
37.682418823242
 21
142.146499633789
 31
0.0
  0
LINE
  5
174
100
AcDbEntity
  8
0
  6
CONTINUOUS
 62
          15
100
AcDbLine
 10
40.638984680176
 20
149.278823852539
 30
0.0
 11
40.638984680176
 21
142.146499633789
 31
0.0
  0
LINE
  5
175
100
AcDbEntity
  8
0
  6
CONTINUOUS
 62
          15
100
AcDbLine
 10
43.777488708496
 20
149.278823852539
 30
0.0
 11
43.777488708496
 21
142.146499633789
 31
0.0
  0
TEXT
  5
176
100
AcDbEntity
  8
0
  6
CONTINUOUS
 62
          15
100
AcDbText
 10
42.49347884953
 20
150.141586285352
 30
0.0
 40
1.399999976158
  1
DO
 50
90.000002504478
 41
1.071428589675
  7
GOTHICI
100
AcDbText
  0
TEXT
  5
177
100
AcDbEntity
  8
0
  6
CONTINUOUS
 62
          15
100
AcDbText
 10
39.521703794599
 20
150.141586285352
 30
0.0
 40
1.399999976158
  1
SM
 50
90.000002504478
 41
1.071428589675
  7
GOTHICI
100
AcDbText
  0
TEXT
  5
178
100
AcDbEntity
  8
0
  6
CONTINUOUS
 62
          15
100
AcDbText
 10
33.57807739079
 20
150.334747296094
 30
0.0
 40
1.399999976158
  1
SI
 50
90.000002504478
 41
1.071428589675
  7
GOTHICI
100
AcDbText
  0
TEXT
  5
179
100
AcDbEntity
  8
0
  6
CONTINUOUS
 62
          15
100
AcDbText
 10
36.549890592694
 20
150.141586285352
 30
0.0
 40
1.399999976158
  1
SO
 50
90.000002504478
 41
1.071428589675
  7
GOTHICI
100
AcDbText
  0
TEXT
  5
17A
100
AcDbEntity
  8
0
  6
CONTINUOUS
 62
          15
100
AcDbText
 10
45.688135221601
 20
150.037567120313
 30
0.0
 40
1.399999976158
  1
CM
 50
90.000002504478
 41
1.071428589675
  7
GOTHICI
100
AcDbText
  0
TEXT
  5
17B
100
AcDbEntity
  8
0
  6
CONTINUOUS
 62
          15
100
AcDbText
 10
26.340354919434
 20
153.992308974266
 30
0.0
 40
1.200000047684
  1
INTER-PANEL CONNECTIONS
 41
1.08333330022
  7
GOTHICI
100
AcDbText
  0
TEXT
  5
17C
100
AcDbEntity
  8
0
  6
CONTINUOUS
 62
          15
100
AcDbText
 10
11.067749023438
 20
171.920192748308
 30
0.0
 40
1.689999938011
  1
"SO" to "SM"
 41
1.153846153846
  7
GOTHICI
100
AcDbText
  0
TEXT
  5
17D
100
AcDbEntity
  8
0
  6
CONTINUOUS
 62
          15
100
AcDbText
 10
11.887197494507
 20
175.351253539324
 30
0.0
 40
1.689999938011
  1
CHECK "LINK"
 41
1.153846153846
  7
GOTHICI
100
AcDbText
  0
TEXT
  5
17E
100
AcDbEntity
  8
0
  6
CONTINUOUS
 62
          15
100
AcDbText
 10
132.378982543945
 20
165.278540074825
 30
0.0
 40
3.0
  1
SA-6 AREA ALARM
  7
ROMAND
100
AcDbText
  0
LINE
  5
17F
100
AcDbEntity
  8
0
  6
CONTINUOUS
 62
          15
100
AcDbLine
 10
65.223823547363
 20
60.782356262207
 30
0.0
 11
114.651298522949
 21
60.782356262207
 31
0.0
  0
LINE
  5
180
100
AcDbEntity
  8
0
  6
CONTINUOUS
 62
          15
100
AcDbLine
 10
114.651298522949
 20
31.149843215942
 30
0.0
 11
65.223823547363
 21
31.149843215942
 31
0.0
  0
LINE
  5
181
100
AcDbEntity
  8
0
  6
CONTINUOUS
 62
          15
100
AcDbLine
 10
65.223823547363
 20
31.149843215942
 30
0.0
 11
65.223823547363
 21
60.782356262207
 31
0.0
  0
TEXT
  5
182
100
AcDbEntity
  8
0
  6
CONTINUOUS
 62
          15
100
AcDbText
 10
23.203813552856
 20
48.313342303038
 30
0.0
 40
1.5
  1
NOTE
 41
1.133333325386
  7
TXT
100
AcDbText
  0
TEXT
  5
183
100
AcDbEntity
  8
0
  6
CONTINUOUS
 62
          15
100
AcDbText
 10
23.203813552856
 20
45.91334220767
 30
0.0
 40
1.5
  1
TERMINATION BOARDS OR
 41
1.133333325386
  7
TXT
100
AcDbText
  0
TEXT
  5
184
100
AcDbEntity
  8
0
  6
CONTINUOUS
 62
          15
100
AcDbText
 10
23.203813552856
 20
43.513342112303
 30
0.0
 40
1.5
  1
BOXES MUST BE MOUNTED
 41
1.133333325386
  7
TXT
100
AcDbText
  0
TEXT
  5
185
100
AcDbEntity
  8
0
  6
CONTINUOUS
 62
          15
100
AcDbText
 10
23.203813552856
 20
41.113342016935
 30
0.0
 40
1.5
  1
AS CLOSE AS POSSIBLE
 41
1.133333325386
  7
TXT
100
AcDbText
  0
TEXT
  5
186
100
AcDbEntity
  8
0
  6
CONTINUOUS
 62
          15
100
AcDbText
 10
23.203813552856
 20
38.713341921568
 30
0.0
 40
1.5
  1
TO THE PRESSURE SWITCHES
 41
1.133333325386
  7
TXT
100
AcDbText
  0
LINE
  5
187
100
AcDbEntity
  8
0
  6
CONTINUOUS
 62
          15
100
AcDbLine
 10
24.48588180542
 20
125.097526550293
 30
0.0
 11
24.48588180542
 21
113.526596069336
 31
0.0
  0
LINE
  5
188
100
AcDbEntity
  8
0
  6
CONTINUOUS
 62
          15
100
AcDbLine
 10
115.697227478027
 20
116.867919921875
 30
0.0
 11
115.800224304199
 21
116.867919921875
 31
0.0
  0
LINE
  5
189
100
AcDbEntity
  8
0
  6
CONTINUOUS
 62
          15
100
AcDbLine
 10
95.431838989258
 20
116.867919921875
 30
0.0
 11
95.431838989258
 21
113.526596069336
 31
0.0
  0
LINE
  5
18A
100
AcDbEntity
  8
0
  6
CONTINUOUS
 62
          15
100
AcDbLine
 10
27.691967010498
 20
116.867919921875
 30
0.0
 11
27.691967010498
 21
113.526596069336
 31
0.0
  0
LINE
  5
18B
100
AcDbEntity
  8
0
  6
CONTINUOUS
 62
          15
100
AcDbLine
 10
31.120983123779
 20
116.867919921875
 30
0.0
 11
31.120983123779
 21
113.526596069336
 31
0.0
  0
LINE
  5
18C
100
AcDbEntity
  8
0
  6
CONTINUOUS
 62
          15
100
AcDbLine
 10
41.407939910889
 20
116.867919921875
 30
0.0
 11
41.407939910889
 21
113.526596069336
 31
0.0
  0
LINE
  5
18D
100
AcDbEntity
  8
0
  6
CONTINUOUS
 62
          15
100
AcDbLine
 10
24.48588180542
 20
116.867919921875
 30
0.0
 11
24.48588180542
 21
114.330467224121
 31
0.0
  0
LINE
  5
18E
100
AcDbEntity
  8
0
  6
CONTINUOUS
 62
          15
100
AcDbLine
 10
44.854167938232
 20
116.867919921875
 30
0.0
 11
34.567165374756
 21
116.867919921875
 31
0.0
  0
LINE
  5
18F
100
AcDbEntity
  8
0
  6
CONTINUOUS
 62
          15
100
AcDbLine
 10
24.48588180542
 20
125.097526550293
 30
0.0
 11
24.48588180542
 21
114.330467224121
 31
0.0
  0
LINE
  5
190
100
AcDbEntity
  8
0
  6
CONTINUOUS
 62
          15
100
AcDbLine
 10
31.138149261475
 20
116.867919921875
 30
0.0
 11
31.138149261475
 21
114.330467224121
 31
0.0
  0
LINE
  5
191
100
AcDbEntity
  8
0
  6
CONTINUOUS
 62
          15
100
AcDbLine
 10
34.567165374756
 20
116.867919921875
 30
0.0
 11
34.567165374756
 21
113.526596069336
 31
0.0
  0
LINE
  5
192
100
AcDbEntity
  8
0
  6
CONTINUOUS
 62
          15
100
AcDbLine
 10
44.854167938232
 20
125.097526550293
 30
0.0
 11
44.854167938232
 21
113.526596069336
 31
0.0
  0
LINE
  5
193
100
AcDbEntity
  8
0
  6
CONTINUOUS
 62
          15
100
AcDbLine
 10
38.081920623779
 20
116.867919921875
 30
0.0
 11
38.081920623779
 21
113.526596069336
 31
0.0
  0
LINE
  5
194
100
AcDbEntity
  8
0
  6
CONTINUOUS
 62
          15
100
AcDbLine
 10
34.567165374756
 20
116.867919921875
 30
0.0
 11
24.48588180542
 21
116.867919921875
 31
0.0
  0
LINE
  5
195
100
AcDbEntity
  8
0
  6
CONTINUOUS
 62
          15
100
AcDbLine
 10
54.935451507568
 20
116.867919921875
 30
0.0
 11
44.854167938232
 21
116.867919921875
 31
0.0
  0
LINE
  5
196
100
AcDbEntity
  8
0
  6
CONTINUOUS
 62
          15
100
AcDbLine
 10
24.48588180542
 20
125.097526550293
 30
0.0
 11
44.854167938232
 21
125.097526550293
 31
0.0
  0
LINE
  5
197
100
AcDbEntity
  8
0
  6
CONTINUOUS
 62
          15
100
AcDbLine
 10
64.982360839844
 20
116.867919921875
 30
0.0
 11
64.982360839844
 21
113.526596069336
 31
0.0
  0
LINE
  5
198
100
AcDbEntity
  8
0
  6
CONTINUOUS
 62
          15
100
AcDbLine
 10
68.205657958984
 20
116.867919921875
 30
0.0
 11
68.205657958984
 21
113.526596069336
 31
0.0
  0
LINE
  5
199
100
AcDbEntity
  8
0
  6
CONTINUOUS
 62
          15
100
AcDbLine
 10
71.634628295898
 20
116.867919921875
 30
0.0
 11
71.634628295898
 21
113.526596069336
 31
0.0
  0
LINE
  5
19A
100
AcDbEntity
  8
0
  6
CONTINUOUS
 62
          15
100
AcDbLine
 10
75.06364440918
 20
116.867919921875
 30
0.0
 11
75.06364440918
 21
113.526596069336
 31
0.0
  0
LINE
  5
19B
100
AcDbEntity
  8
0
  6
CONTINUOUS
 62
          15
100
AcDbLine
 10
81.921630859375
 20
116.867919921875
 30
0.0
 11
81.921630859375
 21
113.526596069336
 31
0.0
  0
LINE
  5
19C
100
AcDbEntity
  8
0
  6
CONTINUOUS
 62
          15
100
AcDbLine
 10
85.350646972656
 20
125.097526550293
 30
0.0
 11
85.350646972656
 21
113.526596069336
 31
0.0
  0
LINE
  5
19D
100
AcDbEntity
  8
0
  6
CONTINUOUS
 62
          15
100
AcDbLine
 10
78.578399658203
 20
116.867919921875
 30
0.0
 11
78.578399658203
 21
113.526596069336
 31
0.0
  0
LINE
  5
19E
100
AcDbEntity
  8
0
  6
CONTINUOUS
 62
          15
100
AcDbLine
 10
44.854167938232
 20
125.097526550293
 30
0.0
 11
54.935451507568
 21
125.097526550293
 31
0.0
  0
LINE
  5
19F
100
AcDbEntity
  8
0
  6
CONTINUOUS
 62
          15
100
AcDbLine
 10
44.854167938232
 20
125.097526550293
 30
0.0
 11
44.854167938232
 21
114.330467224121
 31
0.0
  0
LINE
  5
1A0
100
AcDbEntity
  8
0
  6
CONTINUOUS
 62
          15
100
AcDbLine
 10
48.077465057373
 20
125.097526550293
 30
0.0
 11
48.077465057373
 21
113.526596069336
 31
0.0
  0
LINE
  5
1A1
100
AcDbEntity
  8
0
  6
CONTINUOUS
 62
          15
100
AcDbLine
 10
51.506435394287
 20
125.097526550293
 30
0.0
 11
51.506435394287
 21
113.526596069336
 31
0.0
  0
LINE
  5
1A2
100
AcDbEntity
  8
0
  6
CONTINUOUS
 62
          15
100
AcDbLine
 10
54.935451507568
 20
125.097526550293
 30
0.0
 11
54.935451507568
 21
113.526596069336
 31
0.0
  0
LINE
  5
1A3
100
AcDbEntity
  8
0
  6
CONTINUOUS
 62
          15
100
AcDbLine
 10
61.793437957764
 20
116.867919921875
 30
0.0
 11
61.793437957764
 21
113.526596069336
 31
0.0
  0
LINE
  5
1A4
100
AcDbEntity
  8
0
  6
CONTINUOUS
 62
          15
100
AcDbLine
 10
58.450206756592
 20
116.867919921875
 30
0.0
 11
58.450206756592
 21
113.526596069336
 31
0.0
  0
LINE
  5
1A5
100
AcDbEntity
  8
0
  6
CONTINUOUS
 62
          15
100
AcDbLine
 10
46.793460845947
 20
122.647994995117
 30
0.0
 11
45.95023727417
 21
123.491218566895
 31
0.0
  0
LINE
  5
1A6
100
AcDbEntity
  8
0
  6
CONTINUOUS
 62
          15
100
AcDbLine
 10
45.791530609131
 20
120.272361755371
 30
0.0
 11
46.952167510986
 21
120.272361755371
 31
0.0
  0
LINE
  5
1A7
100
AcDbEntity
  8
0
  6
CONTINUOUS
 62
          15
100
AcDbLine
 10
46.952167510986
 20
120.272361755371
 30
0.0
 11
46.952167510986
 21
118.214019775391
 31
0.0
  0
LINE
  5
1A8
100
AcDbEntity
  8
0
  6
CONTINUOUS
 62
          15
100
AcDbLine
 10
46.952167510986
 20
118.214019775391
 30
0.0
 11
45.791530609131
 21
118.214019775391
 31
0.0
  0
LINE
  5
1A9
100
AcDbEntity
  8
0
  6
CONTINUOUS
 62
          15
100
AcDbLine
 10
45.791530609131
 20
118.214019775391
 30
0.0
 11
45.791530609131
 21
120.272361755371
 31
0.0
  0
LINE
  5
1AA
100
AcDbEntity
  8
0
  6
CONTINUOUS
 62
          15
100
AcDbLine
 10
45.791530609131
 20
118.904830932617
 30
0.0
 11
46.952167510986
 21
118.904830932617
 31
0.0
  0
ELLIPSE
  5
1AB
100
AcDbEntity
  8
0
  6
CONTINUOUS
 62
          15
100
AcDbEllipse
 10
46.371837615967
 20
123.069595336914
 30
0.0
 11
0.8444507718086235
 21
-0.0000000369121156
 31
0.0
210
0.0
220
0.0
230
1.0
 40
0.624739254181
 41
0.0
 42
6.2831853071795862
  0
LINE
  5
1AC
100
AcDbEntity
  8
0
  6
CONTINUOUS
 62
          15
100
AcDbLine
 10
50.044887542725
 20
122.647994995117
 30
0.0
 11
49.201663970947
 21
123.491218566895
 31
0.0
  0
LINE
  5
1AD
100
AcDbEntity
  8
0
  6
CONTINUOUS
 62
          15
100
AcDbLine
 10
49.042957305908
 20
120.272361755371
 30
0.0
 11
50.203594207764
 21
120.272361755371
 31
0.0
  0
LINE
  5
1AE
100
AcDbEntity
  8
0
  6
CONTINUOUS
 62
          15
100
AcDbLine
 10
50.203594207764
 20
120.272361755371
 30
0.0
 11
50.203594207764
 21
118.214019775391
 31
0.0
  0
LINE
  5
1AF
100
AcDbEntity
  8
0
  6
CONTINUOUS
 62
          15
100
AcDbLine
 10
50.203594207764
 20
118.214019775391
 30
0.0
 11
49.042957305908
 21
118.214019775391
 31
0.0
  0
LINE
  5
1B0
100
AcDbEntity
  8
0
  6
CONTINUOUS
 62
          15
100
AcDbLine
 10
49.042957305908
 20
118.214019775391
 30
0.0
 11
49.042957305908
 21
120.272361755371
 31
0.0
  0
LINE
  5
1B1
100
AcDbEntity
  8
0
  6
CONTINUOUS
 62
          15
100
AcDbLine
 10
49.042957305908
 20
118.904830932617
 30
0.0
 11
50.203594207764
 21
118.904830932617
 31
0.0
  0
ELLIPSE
  5
1B2
100
AcDbEntity
  8
0
  6
CONTINUOUS
 62
          15
100
AcDbEllipse
 10
49.623275756836
 20
123.069595336914
 30
0.0
 11
0.8444507718086235
 21
-0.0000000369121156
 31
0.0
210
0.0
220
0.0
230
1.0
 40
0.624739254181
 41
0.0
 42
6.2831853071795862
  0
LINE
  5
1B3
100
AcDbEntity
  8
0
  6
CONTINUOUS
 62
          15
100
AcDbLine
 10
53.494583129883
 20
122.647994995117
 30
0.0
 11
52.651359558105
 21
123.491218566895
 31
0.0
  0
LINE
  5
1B4
100
AcDbEntity
  8
0
  6
CONTINUOUS
 62
          15
100
AcDbLine
 10
52.492652893066
 20
120.272361755371
 30
0.0
 11
53.653289794922
 21
120.272361755371
 31
0.0
  0
LINE
  5
1B5
100
AcDbEntity
  8
0
  6
CONTINUOUS
 62
          15
100
AcDbLine
 10
53.653289794922
 20
120.272361755371
 30
0.0
 11
53.653289794922
 21
118.214019775391
 31
0.0
  0
LINE
  5
1B6
100
AcDbEntity
  8
0
  6
CONTINUOUS
 62
          15
100
AcDbLine
 10
53.653289794922
 20
118.214019775391
 30
0.0
 11
52.492652893066
 21
118.214019775391
 31
0.0
  0
LINE
  5
1B7
100
AcDbEntity
  8
0
  6
CONTINUOUS
 62
          15
100
AcDbLine
 10
52.492652893066
 20
118.214019775391
 30
0.0
 11
52.492652893066
 21
120.272361755371
 31
0.0
  0
LINE
  5
1B8
100
AcDbEntity
  8
0
  6
CONTINUOUS
 62
          15
100
AcDbLine
 10
52.492652893066
 20
118.904830932617
 30
0.0
 11
53.653289794922
 21
118.904830932617
 31
0.0
  0
ELLIPSE
  5
1B9
100
AcDbEntity
  8
0
  6
CONTINUOUS
 62
          15
100
AcDbEllipse
 10
53.072971343994
 20
123.069595336914
 30
0.0
 11
0.8444507718086235
 21
-0.0000000369121156
 31
0.0
210
0.0
220
0.0
230
1.0
 40
0.624739254181
 41
0.0
 42
6.2831853071795862
  0
LINE
  5
1BA
100
AcDbEntity
  8
0
  6
CONTINUOUS
 62
          15
100
AcDbLine
 10
44.854167938232
 20
121.314712524414
 30
0.0
 11
54.935451507568
 21
121.314712524414
 31
0.0
  0
LINE
  5
1BB
100
AcDbEntity
  8
0
  6
CONTINUOUS
 62
          15
100
AcDbLine
 10
115.697227478027
 20
116.867919921875
 30
0.0
 11
54.935451507568
 21
116.867919921875
 31
0.0
  0
LINE
  5
1BC
100
AcDbEntity
  8
0
  6
CONTINUOUS
 62
          15
100
AcDbLine
 10
54.935451507568
 20
125.097526550293
 30
0.0
 11
98.946685791016
 21
125.097526550293
 31
0.0
  0
LINE
  5
1BD
100
AcDbEntity
  8
0
  6
CONTINUOUS
 62
          15
100
AcDbLine
 10
98.946685791016
 20
125.097526550293
 30
0.0
 11
115.697227478027
 21
125.097526550293
 31
0.0
  0
LINE
  5
1BE
100
AcDbEntity
  8
0
  6
CONTINUOUS
 62
          15
100
AcDbLine
 10
85.350646972656
 20
125.097526550293
 30
0.0
 11
85.350646972656
 21
114.330467224121
 31
0.0
  0
LINE
  5
1BF
100
AcDbEntity
  8
0
  6
CONTINUOUS
 62
          15
100
AcDbLine
 10
88.573944091797
 20
125.097526550293
 30
0.0
 11
88.573944091797
 21
113.526596069336
 31
0.0
  0
LINE
  5
1C0
100
AcDbEntity
  8
0
  6
CONTINUOUS
 62
          15
100
AcDbLine
 10
92.002914428711
 20
125.097526550293
 30
0.0
 11
92.002914428711
 21
114.330467224121
 31
0.0
  0
LINE
  5
1C1
100
AcDbEntity
  8
0
  6
CONTINUOUS
 62
          15
100
AcDbLine
 10
95.431930541992
 20
125.097526550293
 30
0.0
 11
95.431930541992
 21
114.330467224121
 31
0.0
  0
LINE
  5
1C2
100
AcDbEntity
  8
0
  6
CONTINUOUS
 62
          15
100
AcDbLine
 10
102.289916992188
 20
125.097526550293
 30
0.0
 11
102.289916992188
 21
113.526596069336
 31
0.0
  0
LINE
  5
1C3
100
AcDbEntity
  8
0
  6
CONTINUOUS
 62
          15
100
AcDbLine
 10
105.718933105469
 20
125.097526550293
 30
0.0
 11
105.718933105469
 21
109.602325439453
 31
0.0
  0
LINE
  5
1C4
100
AcDbEntity
  8
0
  6
CONTINUOUS
 62
          15
100
AcDbLine
 10
98.946685791016
 20
125.097526550293
 30
0.0
 11
98.946685791016
 21
113.526596069336
 31
0.0
  0
LINE
  5
1C5
100
AcDbEntity
  8
0
  6
CONTINUOUS
 62
          15
100
AcDbLine
 10
87.289939880371
 20
122.647994995117
 30
0.0
 11
86.446716308594
 21
123.491218566895
 31
0.0
  0
LINE
  5
1C6
100
AcDbEntity
  8
0
  6
CONTINUOUS
 62
          15
100
AcDbLine
 10
86.288009643555
 20
120.272361755371
 30
0.0
 11
87.44864654541
 21
120.272361755371
 31
0.0
  0
LINE
  5
1C7
100
AcDbEntity
  8
0
  6
CONTINUOUS
 62
          15
100
AcDbLine
 10
87.44864654541
 20
120.272361755371
 30
0.0
 11
87.44864654541
 21
118.214019775391
 31
0.0
  0
LINE
  5
1C8
100
AcDbEntity
  8
0
  6
CONTINUOUS
 62
          15
100
AcDbLine
 10
87.44864654541
 20
118.214019775391
 30
0.0
 11
86.288009643555
 21
118.214019775391
 31
0.0
  0
LINE
  5
1C9
100
AcDbEntity
  8
0
  6
CONTINUOUS
 62
          15
100
AcDbLine
 10
86.288009643555
 20
118.214019775391
 30
0.0
 11
86.288009643555
 21
120.272361755371
 31
0.0
  0
LINE
  5
1CA
100
AcDbEntity
  8
0
  6
CONTINUOUS
 62
          15
100
AcDbLine
 10
86.288009643555
 20
118.904830932617
 30
0.0
 11
87.44864654541
 21
118.904830932617
 31
0.0
  0
ELLIPSE
  5
1CB
100
AcDbEntity
  8
0
  6
CONTINUOUS
 62
          15
100
AcDbEllipse
 10
86.868316650391
 20
123.069595336914
 30
0.0
 11
0.8444507718086235
 21
-0.0000000369121156
 31
0.0
210
0.0
220
0.0
230
1.0
 40
0.624739254181
 41
0.0
 42
6.2831853071795862
  0
LINE
  5
1CC
100
AcDbEntity
  8
0
  6
CONTINUOUS
 62
          15
100
AcDbLine
 10
90.541366577148
 20
122.647994995117
 30
0.0
 11
89.698143005371
 21
123.491218566895
 31
0.0
  0
LINE
  5
1CD
100
AcDbEntity
  8
0
  6
CONTINUOUS
 62
          15
100
AcDbLine
 10
89.539436340332
 20
120.272361755371
 30
0.0
 11
90.700073242188
 21
120.272361755371
 31
0.0
  0
LINE
  5
1CE
100
AcDbEntity
  8
0
  6
CONTINUOUS
 62
          15
100
AcDbLine
 10
90.700073242188
 20
120.272361755371
 30
0.0
 11
90.700073242188
 21
118.214019775391
 31
0.0
  0
LINE
  5
1CF
100
AcDbEntity
  8
0
  6
CONTINUOUS
 62
          15
100
AcDbLine
 10
90.700073242188
 20
118.214019775391
 30
0.0
 11
89.539436340332
 21
118.214019775391
 31
0.0
  0
LINE
  5
1D0
100
AcDbEntity
  8
0
  6
CONTINUOUS
 62
          15
100
AcDbLine
 10
89.539436340332
 20
118.214019775391
 30
0.0
 11
89.539436340332
 21
120.272361755371
 31
0.0
  0
LINE
  5
1D1
100
AcDbEntity
  8
0
  6
CONTINUOUS
 62
          15
100
AcDbLine
 10
89.539436340332
 20
118.904830932617
 30
0.0
 11
90.700073242188
 21
118.904830932617
 31
0.0
  0
ELLIPSE
  5
1D2
100
AcDbEntity
  8
0
  6
CONTINUOUS
 62
          15
100
AcDbEllipse
 10
90.119750976563
 20
123.069595336914
 30
0.0
 11
0.8444507718086235
 21
-0.0000000369121156
 31
0.0
210
0.0
220
0.0
230
1.0
 40
0.624739254181
 41
0.0
 42
6.2831853071795862
  0
LINE
  5
1D3
100
AcDbEntity
  8
0
  6
CONTINUOUS
 62
          15
100
AcDbLine
 10
93.991058349609
 20
122.647994995117
 30
0.0
 11
93.147834777832
 21
123.491218566895
 31
0.0
  0
LINE
  5
1D4
100
AcDbEntity
  8
0
  6
CONTINUOUS
 62
          15
100
AcDbLine
 10
92.989128112793
 20
120.272361755371
 30
0.0
 11
94.149765014648
 21
120.272361755371
 31
0.0
  0
LINE
  5
1D5
100
AcDbEntity
  8
0
  6
CONTINUOUS
 62
          15
100
AcDbLine
 10
94.149765014648
 20
120.272361755371
 30
0.0
 11
94.149765014648
 21
118.214019775391
 31
0.0
  0
LINE
  5
1D6
100
AcDbEntity
  8
0
  6
CONTINUOUS
 62
          15
100
AcDbLine
 10
94.149765014648
 20
118.214019775391
 30
0.0
 11
92.989128112793
 21
118.214019775391
 31
0.0
  0
LINE
  5
1D7
100
AcDbEntity
  8
0
  6
CONTINUOUS
 62
          15
100
AcDbLine
 10
92.989128112793
 20
118.214019775391
 30
0.0
 11
92.989128112793
 21
120.272361755371
 31
0.0
  0
LINE
  5
1D8
100
AcDbEntity
  8
0
  6
CONTINUOUS
 62
          15
100
AcDbLine
 10
92.989128112793
 20
118.904830932617
 30
0.0
 11
94.149765014648
 21
118.904830932617
 31
0.0
  0
ELLIPSE
  5
1D9
100
AcDbEntity
  8
0
  6
CONTINUOUS
 62
          15
100
AcDbEllipse
 10
93.569450378418
 20
123.069595336914
 30
0.0
 11
0.8444507718086235
 21
-0.0000000369121156
 31
0.0
210
0.0
220
0.0
230
1.0
 40
0.624739254181
 41
0.0
 42
6.2831853071795862
  0
LINE
  5
1DA
100
AcDbEntity
  8
0
  6
CONTINUOUS
 62
          15
100
AcDbLine
 10
97.59935760498
 20
122.647994995117
 30
0.0
 11
96.756134033203
 21
123.491218566895
 31
0.0
  0
LINE
  5
1DB
100
AcDbEntity
  8
0
  6
CONTINUOUS
 62
          15
100
AcDbLine
 10
96.597427368164
 20
120.272361755371
 30
0.0
 11
97.75806427002
 21
120.272361755371
 31
0.0
  0
LINE
  5
1DC
100
AcDbEntity
  8
0
  6
CONTINUOUS
 62
          15
100
AcDbLine
 10
97.75806427002
 20
120.272361755371
 30
0.0
 11
97.75806427002
 21
118.214019775391
 31
0.0
  0
LINE
  5
1DD
100
AcDbEntity
  8
0
  6
CONTINUOUS
 62
          15
100
AcDbLine
 10
97.75806427002
 20
118.214019775391
 30
0.0
 11
96.597427368164
 21
118.214019775391
 31
0.0
  0
LINE
  5
1DE
100
AcDbEntity
  8
0
  6
CONTINUOUS
 62
          15
100
AcDbLine
 10
96.597427368164
 20
118.214019775391
 30
0.0
 11
96.597427368164
 21
120.272361755371
 31
0.0
  0
LINE
  5
1DF
100
AcDbEntity
  8
0
  6
CONTINUOUS
 62
          15
100
AcDbLine
 10
96.597427368164
 20
118.904830932617
 30
0.0
 11
97.75806427002
 21
118.904830932617
 31
0.0
  0
ELLIPSE
  5
1E0
100
AcDbEntity
  8
0
  6
CONTINUOUS
 62
          15
100
AcDbEllipse
 10
97.177749633789
 20
123.069595336914
 30
0.0
 11
0.8444507718086235
 21
-0.0000000369121156
 31
0.0
210
0.0
220
0.0
230
1.0
 40
0.624739254181
 41
0.0
 42
6.2831853071795862
  0
LINE
  5
1E1
100
AcDbEntity
  8
0
  6
CONTINUOUS
 62
          15
100
AcDbLine
 10
101.168006896973
 20
122.647994995117
 30
0.0
 11
100.324783325195
 21
123.491218566895
 31
0.0
  0
LINE
  5
1E2
100
AcDbEntity
  8
0
  6
CONTINUOUS
 62
          15
100
AcDbLine
 10
100.166076660156
 20
120.272361755371
 30
0.0
 11
101.326713562012
 21
120.272361755371
 31
0.0
  0
LINE
  5
1E3
100
AcDbEntity
  8
0
  6
CONTINUOUS
 62
          15
100
AcDbLine
 10
101.326713562012
 20
120.272361755371
 30
0.0
 11
101.326713562012
 21
118.214019775391
 31
0.0
  0
LINE
  5
1E4
100
AcDbEntity
  8
0
  6
CONTINUOUS
 62
          15
100
AcDbLine
 10
101.326713562012
 20
118.214019775391
 30
0.0
 11
100.166076660156
 21
118.214019775391
 31
0.0
  0
LINE
  5
1E5
100
AcDbEntity
  8
0
  6
CONTINUOUS
 62
          15
100
AcDbLine
 10
100.166076660156
 20
118.214019775391
 30
0.0
 11
100.166076660156
 21
120.272361755371
 31
0.0
  0
LINE
  5
1E6
100
AcDbEntity
  8
0
  6
CONTINUOUS
 62
          15
100
AcDbLine
 10
100.166076660156
 20
118.904830932617
 30
0.0
 11
101.326713562012
 21
118.904830932617
 31
0.0
  0
ELLIPSE
  5
1E7
100
AcDbEntity
  8
0
  6
CONTINUOUS
 62
          15
100
AcDbEllipse
 10
100.746391296387
 20
123.069595336914
 30
0.0
 11
0.8444507718086235
 21
-0.0000000369121156
 31
0.0
210
0.0
220
0.0
230
1.0
 40
0.624739254181
 41
0.0
 42
6.2831853071795862
  0
LINE
  5
1E8
100
AcDbEntity
  8
0
  6
CONTINUOUS
 62
          15
100
AcDbLine
 10
104.459098815918
 20
122.647994995117
 30
0.0
 11
103.615875244141
 21
123.491218566895
 31
0.0
  0
LINE
  5
1E9
100
AcDbEntity
  8
0
  6
CONTINUOUS
 62
          15
100
AcDbLine
 10
103.457168579102
 20
120.272361755371
 30
0.0
 11
104.617805480957
 21
120.272361755371
 31
0.0
  0
LINE
  5
1EA
100
AcDbEntity
  8
0
  6
CONTINUOUS
 62
          15
100
AcDbLine
 10
104.617805480957
 20
120.272361755371
 30
0.0
 11
104.617805480957
 21
118.214019775391
 31
0.0
  0
LINE
  5
1EB
100
AcDbEntity
  8
0
  6
CONTINUOUS
 62
          15
100
AcDbLine
 10
104.617805480957
 20
118.214019775391
 30
0.0
 11
103.457168579102
 21
118.214019775391
 31
0.0
  0
LINE
  5
1EC
100
AcDbEntity
  8
0
  6
CONTINUOUS
 62
          15
100
AcDbLine
 10
103.457168579102
 20
118.214019775391
 30
0.0
 11
103.457168579102
 21
120.272361755371
 31
0.0
  0
LINE
  5
1ED
100
AcDbEntity
  8
0
  6
CONTINUOUS
 62
          15
100
AcDbLine
 10
103.457168579102
 20
118.904830932617
 30
0.0
 11
104.617805480957
 21
118.904830932617
 31
0.0
  0
ELLIPSE
  5
1EE
100
AcDbEntity
  8
0
  6
CONTINUOUS
 62
          15
100
AcDbEllipse
 10
104.037475585938
 20
123.069595336914
 30
0.0
 11
0.8444507718086235
 21
-0.0000000369121156
 31
0.0
210
0.0
220
0.0
230
1.0
 40
0.624739254181
 41
0.0
 42
6.2831853071795862
  0
LINE
  5
1EF
100
AcDbEntity
  8
0
  6
CONTINUOUS
 62
          15
100
AcDbLine
 10
85.350646972656
 20
121.314712524414
 30
0.0
 11
105.718933105469
 21
121.314712524414
 31
0.0
  0
LINE
  5
1F0
100
AcDbEntity
  8
0
  6
CONTINUOUS
 62
          15
100
AcDbLine
 10
105.718933105469
 20
125.097526550293
 30
0.0
 11
105.718933105469
 21
114.330467224121
 31
0.0
  0
LINE
  5
1F1
100
AcDbEntity
  8
0
  6
CONTINUOUS
 62
          15
100
AcDbLine
 10
108.942237854004
 20
125.097526550293
 30
0.0
 11
108.942237854004
 21
113.526596069336
 31
0.0
  0
LINE
  5
1F2
100
AcDbEntity
  8
0
  6
CONTINUOUS
 62
          15
100
AcDbLine
 10
112.371208190918
 20
125.097526550293
 30
0.0
 11
112.371208190918
 21
113.526596069336
 31
0.0
  0
LINE
  5
1F3
100
AcDbEntity
  8
0
  6
CONTINUOUS
 62
          15
100
AcDbLine
 10
107.658210754395
 20
122.647994995117
 30
0.0
 11
106.815010070801
 21
123.491218566895
 31
0.0
  0
LINE
  5
1F4
100
AcDbEntity
  8
0
  6
CONTINUOUS
 62
          15
100
AcDbLine
 10
106.656303405762
 20
120.272361755371
 30
0.0
 11
107.816917419434
 21
120.272361755371
 31
0.0
  0
LINE
  5
1F5
100
AcDbEntity
  8
0
  6
CONTINUOUS
 62
          15
100
AcDbLine
 10
107.816917419434
 20
120.272361755371
 30
0.0
 11
107.816917419434
 21
118.214019775391
 31
0.0
  0
LINE
  5
1F6
100
AcDbEntity
  8
0
  6
CONTINUOUS
 62
          15
100
AcDbLine
 10
107.816917419434
 20
118.214019775391
 30
0.0
 11
106.656303405762
 21
118.214019775391
 31
0.0
  0
LINE
  5
1F7
100
AcDbEntity
  8
0
  6
CONTINUOUS
 62
          15
100
AcDbLine
 10
106.656303405762
 20
118.214019775391
 30
0.0
 11
106.656303405762
 21
120.272361755371
 31
0.0
  0
LINE
  5
1F8
100
AcDbEntity
  8
0
  6
CONTINUOUS
 62
          15
100
AcDbLine
 10
106.656303405762
 20
118.904830932617
 30
0.0
 11
107.816917419434
 21
118.904830932617
 31
0.0
  0
ELLIPSE
  5
1F9
100
AcDbEntity
  8
0
  6
CONTINUOUS
 62
          15
100
AcDbEllipse
 10
107.236610412598
 20
123.069595336914
 30
0.0
 11
0.8444507718086235
 21
-0.0000000369121156
 31
0.0
210
0.0
220
0.0
230
1.0
 40
0.624739254181
 41
0.0
 42
6.2831853071795862
  0
LINE
  5
1FA
100
AcDbEntity
  8
0
  6
CONTINUOUS
 62
          15
100
AcDbLine
 10
110.909660339355
 20
122.647994995117
 30
0.0
 11
110.066413879395
 21
123.491218566895
 31
0.0
  0
LINE
  5
1FB
100
AcDbEntity
  8
0
  6
CONTINUOUS
 62
          15
100
AcDbLine
 10
109.907707214355
 20
120.272361755371
 30
0.0
 11
111.068367004395
 21
120.272361755371
 31
0.0
  0
LINE
  5
1FC
100
AcDbEntity
  8
0
  6
CONTINUOUS
 62
          15
100
AcDbLine
 10
111.068367004395
 20
120.272361755371
 30
0.0
 11
111.068367004395
 21
118.214019775391
 31
0.0
  0
LINE
  5
1FD
100
AcDbEntity
  8
0
  6
CONTINUOUS
 62
          15
100
AcDbLine
 10
111.068367004395
 20
118.214019775391
 30
0.0
 11
109.907707214355
 21
118.214019775391
 31
0.0
  0
LINE
  5
1FE
100
AcDbEntity
  8
0
  6
CONTINUOUS
 62
          15
100
AcDbLine
 10
109.907707214355
 20
118.214019775391
 30
0.0
 11
109.907707214355
 21
120.272361755371
 31
0.0
  0
LINE
  5
1FF
100
AcDbEntity
  8
0
  6
CONTINUOUS
 62
          15
100
AcDbLine
 10
109.907707214355
 20
118.904830932617
 30
0.0
 11
111.068367004395
 21
118.904830932617
 31
0.0
  0
ELLIPSE
  5
200
100
AcDbEntity
  8
0
  6
CONTINUOUS
 62
          15
100
AcDbEllipse
 10
110.488037109375
 20
123.069595336914
 30
0.0
 11
0.8444507718086235
 21
-0.0000000369121156
 31
0.0
210
0.0
220
0.0
230
1.0
 40
0.624739254181
 41
0.0
 42
6.2831853071795862
  0
LINE
  5
201
100
AcDbEntity
  8
0
  6
CONTINUOUS
 62
          15
100
AcDbLine
 10
114.359344482422
 20
122.647994995117
 30
0.0
 11
113.516120910645
 21
123.491218566895
 31
0.0
  0
LINE
  5
202
100
AcDbEntity
  8
0
  6
CONTINUOUS
 62
          15
100
AcDbLine
 10
113.357414245605
 20
120.272361755371
 30
0.0
 11
114.518051147461
 21
120.272361755371
 31
0.0
  0
LINE
  5
203
100
AcDbEntity
  8
0
  6
CONTINUOUS
 62
          15
100
AcDbLine
 10
114.518051147461
 20
120.272361755371
 30
0.0
 11
114.518051147461
 21
118.214019775391
 31
0.0
  0
LINE
  5
204
100
AcDbEntity
  8
0
  6
CONTINUOUS
 62
          15
100
AcDbLine
 10
114.518051147461
 20
118.214019775391
 30
0.0
 11
113.357414245605
 21
118.214019775391
 31
0.0
  0
LINE
  5
205
100
AcDbEntity
  8
0
  6
CONTINUOUS
 62
          15
100
AcDbLine
 10
113.357414245605
 20
118.214019775391
 30
0.0
 11
113.357414245605
 21
120.272361755371
 31
0.0
  0
LINE
  5
206
100
AcDbEntity
  8
0
  6
CONTINUOUS
 62
          15
100
AcDbLine
 10
113.357414245605
 20
118.904830932617
 30
0.0
 11
114.518051147461
 21
118.904830932617
 31
0.0
  0
ELLIPSE
  5
207
100
AcDbEntity
  8
0
  6
CONTINUOUS
 62
          15
100
AcDbEllipse
 10
113.937721252441
 20
123.069595336914
 30
0.0
 11
0.8444507718086235
 21
-0.0000000369121156
 31
0.0
210
0.0
220
0.0
230
1.0
 40
0.624739254181
 41
0.0
 42
6.2831853071795862
  0
LINE
  5
208
100
AcDbEntity
  8
0
  6
CONTINUOUS
 62
          15
100
AcDbLine
 10
105.718933105469
 20
121.314712524414
 30
0.0
 11
115.697227478027
 21
121.314712524414
 31
0.0
  0
LINE
  5
209
100
AcDbEntity
  8
0
  6
CONTINUOUS
 62
          15
100
AcDbLine
 10
44.854167938232
 20
113.526596069336
 30
0.0
 11
24.48588180542
 21
113.526596069336
 31
0.0
  0
LINE
  5
20A
100
AcDbEntity
  8
0
  6
CONTINUOUS
 62
          15
100
AcDbLine
 10
54.935451507568
 20
113.526596069336
 30
0.0
 11
44.854167938232
 21
113.526596069336
 31
0.0
  0
LINE
  5
20B
100
AcDbEntity
  8
0
  6
CONTINUOUS
 62
          15
100
AcDbLine
 10
115.697227478027
 20
113.526596069336
 30
0.0
 11
54.935451507568
 21
113.526596069336
 31
0.0
  0
TEXT
  5
20C
100
AcDbEntity
  8
0
  6
CONTINUOUS
 62
          15
100
AcDbText
 10
25.566020965576
 20
114.500294178724
 30
0.0
 40
1.600000023842
  1
C
  7
SIMPLEX
100
AcDbText
  0
TEXT
  5
20D
100
AcDbEntity
  8
0
  6
CONTINUOUS
 62
          15
100
AcDbText
 10
28.772151947021
 20
114.500294178724
 30
0.0
 40
1.600000023842
  1
L
  7
SIMPLEX
100
AcDbText
  0
TEXT
  5
20E
100
AcDbEntity
  8
0
  6
CONTINUOUS
 62
          15
100
AcDbText
 10
32.201122283936
 20
114.500294178724
 30
0.0
 40
1.600000023842
  1
H
  7
SIMPLEX
100
AcDbText
  0
TEXT
  5
20F
100
AcDbEntity
  8
0
  6
CONTINUOUS
 62
          15
100
AcDbText
 10
35.85306930542
 20
114.500294178724
 30
0.0
 40
1.600000023842
  1
C
  7
SIMPLEX
100
AcDbText
  0
TEXT
  5
210
100
AcDbEntity
  8
0
  6
CONTINUOUS
 62
          15
100
AcDbText
 10
39.487804412842
 20
114.500294178724
 30
0.0
 40
1.600000023842
  1
L
  7
SIMPLEX
100
AcDbText
  0
TEXT
  5
211
100
AcDbEntity
  8
0
  6
CONTINUOUS
 62
          15
100
AcDbText
 10
42.711009979248
 20
114.500294178724
 30
0.0
 40
1.600000023842
  1
H
  7
SIMPLEX
100
AcDbText
  0
TEXT
  5
212
100
AcDbEntity
  8
0
  6
CONTINUOUS
 62
          15
100
AcDbText
 10
66.0625
 20
114.500294178724
 30
0.0
 40
1.600000023842
  1
C
  7
SIMPLEX
100
AcDbText
  0
TEXT
  5
213
100
AcDbEntity
  8
0
  6
CONTINUOUS
 62
          15
100
AcDbText
 10
69.268630981445
 20
114.500294178724
 30
0.0
 40
1.600000023842
  1
L
  7
SIMPLEX
100
AcDbText
  0
TEXT
  5
214
100
AcDbEntity
  8
0
  6
CONTINUOUS
 62
          15
100
AcDbText
 10
72.697601318359
 20
114.500294178724
 30
0.0
 40
1.600000023842
  1
H
  7
SIMPLEX
100
AcDbText
  0
TEXT
  5
215
100
AcDbEntity
  8
0
  6
CONTINUOUS
 62
          15
100
AcDbText
 10
76.349548339844
 20
114.500294178724
 30
0.0
 40
1.600000023842
  1
C
  7
SIMPLEX
100
AcDbText
  0
TEXT
  5
216
100
AcDbEntity
  8
0
  6
CONTINUOUS
 62
          15
100
AcDbText
 10
83.207489013672
 20
114.500294178724
 30
0.0
 40
1.600000023842
  1
H
  7
SIMPLEX
100
AcDbText
  0
TEXT
  5
217
100
AcDbEntity
  8
0
  6
CONTINUOUS
 62
          15
100
AcDbText
 10
45.934307098389
 20
114.500294178724
 30
0.0
 40
1.600000023842
  1
C
  7
SIMPLEX
100
AcDbText
  0
TEXT
  5
218
100
AcDbEntity
  8
0
  6
CONTINUOUS
 62
          15
100
AcDbText
 10
49.140438079834
 20
114.500294178724
 30
0.0
 40
1.600000023842
  1
L
  7
SIMPLEX
100
AcDbText
  0
TEXT
  5
219
100
AcDbEntity
  8
0
  6
CONTINUOUS
 62
          15
100
AcDbText
 10
52.569408416748
 20
114.500294178724
 30
0.0
 40
1.600000023842
  1
H
  7
SIMPLEX
100
AcDbText
  0
TEXT
  5
21A
100
AcDbEntity
  8
0
  6
CONTINUOUS
 62
          15
100
AcDbText
 10
56.221355438232
 20
114.500294178724
 30
0.0
 40
1.600000023842
  1
C
  7
SIMPLEX
100
AcDbText
  0
TEXT
  5
21B
100
AcDbEntity
  8
0
  6
CONTINUOUS
 62
          15
100
AcDbText
 10
59.856090545654
 20
114.500294178724
 30
0.0
 40
1.600000023842
  1
L
  7
SIMPLEX
100
AcDbText
  0
TEXT
  5
21C
100
AcDbEntity
  8
0
  6
CONTINUOUS
 62
          15
100
AcDbText
 10
63.079296112061
 20
114.500294178724
 30
0.0
 40
1.600000023842
  1
H
  7
SIMPLEX
100
AcDbText
  0
TEXT
  5
21D
100
AcDbEntity
  8
0
  6
CONTINUOUS
 62
          15
100
AcDbText
 10
79.898384094238
 20
114.500294178724
 30
0.0
 40
1.600000023842
  1
L
  7
SIMPLEX
100
AcDbText
  0
TEXT
  5
21E
100
AcDbEntity
  8
0
  6
CONTINUOUS
 62
          15
100
AcDbText
 10
88.984703063965
 20
114.392757862806
 30
0.0
 40
1.600000023842
  1
SD
 41
0.906249979045
  7
SIMPLEX
100
AcDbText
  0
TEXT
  5
21F
100
AcDbEntity
  8
0
  6
CONTINUOUS
 62
          15
100
AcDbText
 10
93.308578491211
 20
114.400577992201
 30
0.0
 40
1.600000023842
  1
M
  7
SIMPLEX
100
AcDbText
  0
TEXT
  5
220
100
AcDbEntity
  8
0
  6
CONTINUOUS
 62
          15
100
AcDbText
 10
96.281730651855
 20
114.350475758314
 30
0.0
 40
1.600000023842
  1
-
  7
SIMPLEX
100
AcDbText
  0
TEXT
  5
221
100
AcDbEntity
  8
0
  6
CONTINUOUS
 62
          15
100
AcDbText
 10
99.96021270752
 20
114.334835499525
 30
0.0
 40
1.600000023842
  1
+
  7
SIMPLEX
100
AcDbText
  0
TEXT
  5
222
100
AcDbEntity
  8
0
  6
CONTINUOUS
 62
          15
100
AcDbText
 10
103.478439331055
 20
114.369770497084
 30
0.0
 40
1.600000023842
  1
A
  7
SIMPLEX
100
AcDbText
  0
TEXT
  5
223
100
AcDbEntity
  8
0
  6
CONTINUOUS
 62
          15
100
AcDbText
 10
113.493362426758
 20
114.369770497084
 30
0.0
 40
1.600000023842
  1
C
  7
SIMPLEX
100
AcDbText
  0
TEXT
  5
224
100
AcDbEntity
  8
0
  6
CONTINUOUS
 62
          15
100
AcDbText
 10
106.747200012207
 20
114.369770497084
 30
0.0
 40
1.600000023842
  1
O
  7
SIMPLEX
100
AcDbText
  0
TEXT
  5
225
100
AcDbEntity
  8
0
  6
CONTINUOUS
 62
          15
100
AcDbText
 10
109.358039855957
 20
114.392757862806
 30
0.0
 40
1.600000023842
  1
CM
 41
0.906249979045
  7
SIMPLEX
100
AcDbText
  0
TEXT
  5
226
100
AcDbEntity
  8
0
  6
CONTINUOUS
 62
          15
100
AcDbText
 10
37.08166885376
 20
110.373836964369
 30
0.0
 40
1.600000023842
  1
TO TERMINATION BOARDS
  7
SIMPLEX
100
AcDbText
  0
TEXT
  5
227
100
AcDbEntity
  8
0
  6
CONTINUOUS
 62
          15
100
AcDbText
 10
87.200355529785
 20
110.579578846693
 30
0.0
 40
1.600000023842
  1
SD
  7
SIMPLEX
100
AcDbText
  0
TEXT
  5
228
100
AcDbEntity
  8
0
  6
CONTINUOUS
 62
          15
100
AcDbText
 10
94.693603515625
 20
110.579578846693
 30
0.0
 40
1.600000023842
  1
REMOTE
  7
SIMPLEX
100
AcDbText
  0
TEXT
  5
229
100
AcDbEntity
  8
0
  6
CONTINUOUS
 62
          15
100
AcDbText
 10
85.740730285645
 20
114.369289845228
 30
0.0
 40
1.600000023842
  1
CM
 41
0.906249979045
  7
SIMPLEX
100
AcDbText
  0
LINE
  5
22A
100
AcDbEntity
  8
0
  6
CONTINUOUS
 62
          15
100
AcDbLine
 10
46.371849060059
 20
64.044158935547
 30
0.0
 11
70.564956665039
 21
64.044158935547
 31
0.0
  0
TEXT
  5
22B
100
AcDbEntity
  8
0
  6
CONTINUOUS
 62
          15
100
AcDbText
 10
89.42113494873
 20
54.520349130034
 30
0.0
 40
2.0
  1
TERMINATION
  7
GOTHICI
100
AcDbText
  0
TEXT
  5
22C
100
AcDbEntity
  8
0
  6
CONTINUOUS
 62
          15
100
AcDbText
 10
89.42113494873
 20
51.320349082351
 30
0.0
 40
2.0
  1
    BOX
  7
GOTHICI
100
AcDbText
  0
LINE
  5
22D
100
AcDbEntity
  8
0
  6
CONTINUOUS
 62
          15
100
AcDbLine
 10
114.651298522949
 20
60.782356262207
 30
0.0
 11
114.651298522949
 21
31.149843215942
 31
0.0
  0
TEXT
  5
22E
100
AcDbEntity
  8
0
  6
CONTINUOUS
 62
          15
100
AcDbText
 10
62.267978668213
 20
104.354685992002
 30
0.0
 40
1.5
  1
56k RESISTORS
 41
1.133333325386
  7
TXT
100
AcDbText
  0
TEXT
  5
22F
100
AcDbEntity
  8
0
  6
CONTINUOUS
 62
          15
100
AcDbText
 10
62.267978668213
 20
101.954685896635
 30
0.0
 40
1.5
  1
MUST BE FITTED
 41
1.133333325386
  7
TXT
100
AcDbText
  0
TEXT
  5
230
100
AcDbEntity
  8
0
  6
CONTINUOUS
 62
          15
100
AcDbText
 10
62.267978668213
 20
99.554685801268
 30
0.0
 40
1.5
  1
TO ANY UNUSED
 41
1.133333325386
  7
TXT
100
AcDbText
  0
TEXT
  5
231
100
AcDbEntity
  8
0
  6
CONTINUOUS
 62
          15
100
AcDbText
 10
62.267978668213
 20
97.1546857059
 30
0.0
 40
1.5
  1
INPUTS
 41
1.133333325386
  7
TXT
100
AcDbText
  0
LINE
  5
232
100
AcDbEntity
  8
0
  6
CONTINUOUS
 62
          15
100
AcDbLine
 10
45.791530609131
 20
107.241470336914
 30
0.0
 11
45.791530609131
 21
118.904830932617
 31
0.0
  0
LINE
  5
233
100
AcDbEntity
  8
0
  6
CONTINUOUS
 62
          15
100
AcDbLine
 10
45.791530609131
 20
64.044158935547
 30
0.0
 11
45.791530609131
 21
107.241470336914
 31
0.0
  0
LINE
  5
234
100
AcDbEntity
  8
0
  6
CONTINUOUS
 62
          15
100
AcDbLine
 10
46.952167510986
 20
107.241470336914
 30
0.0
 11
46.952167510986
 21
118.904830932617
 31
0.0
  0
LINE
  5
235
100
AcDbEntity
  8
0
  6
CONTINUOUS
 62
          15
100
AcDbLine
 10
46.952167510986
 20
95.037315368652
 30
0.0
 11
46.952167510986
 21
107.241470336914
 31
0.0
  0
ENDSEC
  0
SECTION
  2
OBJECTS
  0
DICTIONARY
  5
19
100
AcDbDictionary
  3
ACAD_GROUP
350
1A
  3
ACAD_MLINESTYLE
350
1B
  0
DICTIONARY
  5
1A
102
{ACAD_REACTORS
330
19
102
}
100
AcDbDictionary
  0
DICTIONARY
  5
1B
102
{ACAD_REACTORS
330
19
102
}
100
AcDbDictionary
  3
STANDARD
350
1C
  0
MLINESTYLE
  5
1C
102
{ACAD_REACTORS
330
1B
102
}
100
AcDbMlineStyle
  2
STANDARD
 70
           0
  3

 62
           0
 51
90.0
 52
90.0
 71
           2
 49
0.5
 62
         256
  6
BYLAYER
 49
-0.5
 62
         256
  6
BYLAYER
  0
ENDSEC
  0
EOF
